Song name
# A B C D E F G H I J K L M N O P Q R S T U V W X Y Z

John Petrucci - Black Ice tab

Band:  Municipal Waste
Album: Hazardous Mutation
Song:  Black Ice

Copyright (c)  (Earache) (2005)

Version 1.0 - (13/06/06)

Transcribed By: Steve
Email:          stephen.elvidge1@ntlworld.com


.  - palm mute           /  - slide up to
\  - slide down to       ~  - vibrato
h  - hammer on           b  - Bend
p  - pull off            Suffixes for bend
t  - tap                 f  - full bend    h - half bend
ph - pinched harmonic    q  - quarter bend t - tap bend
                         p  - pre bend
*  - see comment         ^  - Hold bend    r release bend
x  - Stuccatto           ~  - vibrato bend
,  - slight palm mute    () - ghost note, sustained note
"  - tremolo note        <> - harmonic

Tuning E A D G B E

 Intro

 Bass on own

|-------------------------------------|
|-------------------------------------|
|-------------------------------------|
|-4-4--2-4-4---------------4-4--2-4---|
|-4-4--2-4-4---------------4-4--2-4---|
|-2-2----2-2---------------2-2----2---|

 Main Riff

 Guitar 1
[----------------------------|
[----------------------------|
[----------------------------|
[-4-4--2/5--4--2-4-4--2-4-4--|
[-4-4--2/5--4--2-4-4--2-4-4--|
[----------------------------|
[Guitar 2
[----------------------------|
[----------------------------|
[-1111\9/11\11\9-1111\9/1111-|
[-1111\9/11\11\9-1111\9/1111-|
[-9-9-\7/10\9-\7-9-9-\7/9-9--|
[----------------------------|Rpt 3 X

 Chorus

|--------------|
|--------------|
|-9-9p7-9p7----|
|-9-9p7-9p7----|
|-7-7----------|
|--------------| Rpt 3 X

|--------------|
|--------------|
|-4-4----7-7---|
|-4-4----7-7---|
|-2-2--2-5-5---|
|--------------|

 Rpt above

 Guitar 1
[----------------------------|
[----------------------------|
[----------------------------|
[-4-4--2/5--4--2-4-4--2-4-4--|
[-4-4--2/5--4--2-4-4--2-4-4--|
[----------------------------|
[Guitar 2
[----------------------------|
[----------------------------|
[-1111\9/11\11\9-1111\9/1111-|
[-1111\9/11\11\9-1111\9/1111-|
[-9-9-\7/10\9-\7-9-9-\7/9-9--|
[----------------------------|


 Guitar 1
[---------------------------|
[---------------------------|
[---------------------------|
[-4-4--2/5--4--2-4-4--2-4---|
[-4-4--2/5--4--2-4-4--2-4---|
[---------------------------|
[Guitar 2
[---------------------------|
[---------------------------|
[-1111\9/11\11\9-1111\9/11--|
[-1111\9/11\11\9-1111\9/11--|
[-9-9-\7/10\9-\7-9-9-\7/9---|
[---------------------------|





END

Tap to rate this tab
 
# A B C D E F G H I J K L M N O P Q R S T U V W X Y Z