Song name
# A B C D E F G H I J K L M N O P Q R S T U V W X Y Z

John Petrucci - Damage Control tab

Gtr I (E A D G B E) - 'Distorted [Left]'
Gtr II (E A D G B E) - 'Distorted [Right]'
Gtr III (E A D G B E) - 'Distorted [Lead]'
Gtr IV (E A D G B E) - 'Distorted [Centre]'


   Intro
    Slow Metal Q=68                 1.
    F#5       E5F#5       E5F#B5A5  F#5       E5F#5       E5B5C5
   4/4                             7/8
    Gtr I
                                ~
    S S S S S S S S S S S S S S E   S S S S S S S S S S S S S S
||--------------------------------|------------------------------||
||o-------------------------------|-----------------------------o||
||--------------------------------|------------------------------||
||--------------------------------|-------------------------4s5--||
||o-4-4-x-x-4-2-4-4-x-x-4-2-4s9-7-|-4-4-x-x-4-2-4-4-x-x-4-2-2s3-o||
||--2-2-x-x-2-0-2-2-x-x-2-0-2s7-5-|-2-2-x-x-2-0-2-2-x-x-2-0-2s3--||


  2.
  F#5     N.C.                                                   C5C#E5
 4/4
                                                                 PM--|
           |----6-----|  |----6----|   |----6-----|  |----6----| |-3-|
  S S S S  T T T  T T T  T T T T T T   T T T  T T T  T T T T T T E E E
|-----------------------------------------------------------------------|
|-----------------------------------------------------------------------|
|-----------------------------------------------------------------------|
|--------------------------------------------------------------------2--|
|-4-4-x-x--9-7-5---------------4-5-7/--9-7-5---------------4-5-7-3-4-2--|
|-2-2-x-x---------9-7-5\-3-5-7----------------9-7-5\-3-5-7-------3-4-0--|
|
| Gtr II
|                                                                PM--|
|          |----6-----|  |----6----|   |----6-----|  |----6----| |-3-|
| Q        T T T  T T T  T T T T T T   T T T  T T T  T T T T T T E E E
|-----------------------------------------------------------------------|
|-----------------------------------------------------------------------|
|-----------------------------------------------------------------------|
|---------11-9-7---------------6-7-9/-11-9-7---------------6-7-9-----2--|
|----------------11-9-7\-5-7-9---------------11-9-7\-5-7-9-------3-4-2--|
|----------------------------------------------------------------3-4-0--|


  F#5       E5F#5       E5F#B5A5  F#5       E5F#5       E5B5C5
                                 7/8
  Gtrs I, II
                              ~
  S S S S S S S S S S S S S S E   S S S S S S S S S S S S S S
|-------------------------------|-----------------------------|
|-------------------------------|-----------------------------|
|-------------------------------|-----------------------------|
|-------------------------------|-------------------------4s5-|
|-4-4-x-x-4-2-4-4-x-x-4-2-4s9-7-|-4-4-x-x-4-2-4-4-x-x-4-2-2s3-|
|-2-2-x-x-2-0-2-2-x-x-2-0-2s7-5-|-2-2-x-x-2-0-2-2-x-x-2-0-2s3-|


  F#5       E5F#5       E5F#B5A5  F#5       E5F#5       E5C5C#E5
 4/4
                              ~                           PM--|
                                                          |-3-|
  S S S S S S S S S S S S S S E   S S S S S S S S S S S S E E E
|-------------------------------|--------------------------------|
|-------------------------------|--------------------------------|
|-------------------------------|--------------------------------|
|-------------------------------|-----------------------------2--|
|-4-4-x-x-4-2-4-4-x-x-4-2-4s9-7-|-4-4-x-x-4-2-4-4-x-x-4-2-3-4-2--|
|-2-2-x-x-2-0-2-2-x-x-2-0-2s7-5-|-2-2-x-x-2-0-2-2-x-x-2-0-3-4-0--|


    F#5       E5F#5       E5F#G5  F#5       E5F#5       E5F#E5
   7/8                           4/4
    S S S S S S S S S S S S S S   S S S S S S S S S S S S S S S S
||------------------------------|----------------------------------||
||o-----------------------------|---------------------------------o||
||------------------------------|----------------------------------||
||--------------------------4s5-|----------------------------------||
||o-4-4-x-x-4-2-4-4-x-x-4-2-4s5-|-4-4-x-x-4-2-4-4-x-x-4-2-4-2-x-x-o||
||--2-2-x-x-2-0-2-2-x-x-2-0-2s3-|-2-2-x-x-2-0-2-2-x-x-2-0-2-0-x-x--||


  F#5   E5  F#5 E5F#5   (G5)           F#5   E5  F#5 E5F#5             E5
 7/8                                  4/4
  Gtr III
  PM--|                 ~~~~~~~~~~~    PM--|                   ~~~~~~~~
  S S S S   +S  S S S S E.     +E      S S S S   +S  S S S S S E   +Q
|-----------------------0------(0)---|-------------------------9---(9)------|
|---------------------0--------------|-----------------------8--------------|
|-------3b4r(3)----------------------|-------3b4r(3)-----4s7----------------|
|-----4---------4--------------------|-----4---------4s5--------------------|
|---4-------------4s5----------------|---4----------------------------------|
|-2----------------------------------|-2------------------------------------|
|
| Gtrs I, II
| PM---------------------------------------------------------------------|
| S e   S    S  S S S S S  S S  S  S   S e   S    S  S S S S S S S  S  E S
|------------------------------------|--------------------------------------|
|------------------------------------|--------------------------------------|
|------------------------------------|--------------------------------------|
|----------------------------5-------|--------------------------------------|
|-4-4---2----4--2-4-4------5----5----|-4-4---2----4--2-4-4---4-4-4--4--2-2--|
|-2-2---0----2--0-2-2---3----------3-|-2-2---0----2--0-2-2---2-2-2--2--0-0--|


  F#5   E5   F#5 E5F#5   (G5)
 7/8
  PM--|                      ~~~~~~~~
  S S S  S   +S  S S S S  S  E   +E
|--------------------------------------|
|-------------------------7s=5---(5)---|
|---3---/6b7r(6)-----4s6-(6)s4---(4)---|
|-----4----------4-5-------------------|
|--------------------------------------|
|-2------------------------------------|
|
| PM------------------------------------
| S e    S    S  S S S S  S  S S  S  S
|--------------------------------------|
|--------------------------------------|
|--------------------------------------|
|------------------------------5-------|
|-4-4----2----4--2-4-4-------5----5----|
|-2-2----0----2--0-2-2----3----------3-|


  F#5     E5F#E5F#5   D5         E5
 4/4
  PM                    ~~~~           ~~~
  S T T S S S S S S S S S S  T T  T T  S   +S
|---------0---------------9-12p0-14p0-15--(15)\-|
|-----------0-----------8-----------------------|
|-------------3-----4s7-------------------------|
|---4p2---------4s5-----------------------------|
|-------4---------------------------------------|
|-2---------------------------------------------|
|
|--------------------------------|
| S e     S S S S S S S S S  S    S    E
|-----------------------------------------------|
|--------------------------------------5\-------|
|--------------------------------------4\-------|
|---------------------0-0-0--0----2----2\-------|
|-4-4-----2-4-2-4-4---0-0-0--0----2-------------|
|-2-2-----0-2-0-2-2-----------------------------|


  F#5      E5    F#5  E5 F#5      (G5)
 7/8
                                   ~~~
   S  S  S  S     +S   S  S  S  S  E.      +E
|-------------------------------------------------|
|---------------------------------17------(17)\---|
|----------15b16r(15)----------16-----------------|
|-------16------------16--------------------------|
|----16------------------16s17--------------------|
|-14----------------------------------------------|
|
|  PM----------------------------------------------
|  S  e     S      S   S  S  S  S  S  S S   S   S
|-------------------------------------------------|
|-------------------------------------------------|
|-------------------------------------------------|
|---------------------------------------5---------|
|--4--4-----2------4---2--4--4--------5-----5-----|
|--2--2-----0------2---0--2--2-----3------------3-|


  F#5      E5    F#5  E5 F#5                   E5
 4/4
                                            ~~~
   S  S  S  S     +S   S  S  S  S  S  S  S  E.     +S
|------------------------------------21s24s21-----(21)\--|
|---------------------------------20---------------------|
|----------15b16r(15)-------16s19------------------------|
|-------16------------16-17------------------------------|
|----16--------------------------------------------------|
|-14-----------------------------------------------------|
|
|------------------------------------|
|  S  e     S      S   S  S  S  S  S  S  S  S  E.
|--------------------------------------------------------|
|--------------------------------------------------------|
|--------------------------------------------------------|
|----------------------------------------4--2--2---------|
|--4--4-----2------4---2--4--4--------4--------2---------|
|--2--2-----0------2---0--2--2-----2-----------0---------|


  F#5      E5     F#5  E5 F#5      (G5)
 7/8
                                         ~~~~~~~~~
   S  S  S   S     +S   S  S  S  S   S   E    +E
|---------------------------------------------------|
|-----------------------------------19s=17---(17)---|
|----15----/18b19r(18)-------16s18-(18)s16---(16)---|
|-------16-------------16-17------------------------|
|---------------------------------------------------|
|-14------------------------------------------------|
|
|  PM------------------------------------------------
|  S  e      S      S   S  S  S  S   S   S S   S  S
|---------------------------------------------------|
|---------------------------------------------------|
|---------------------------------------------------|
|------------------------------------------5--------|
|--4--4------2------4---2--4--4----------5-----5----|
|--2--2------0------2---0--2--2------3------------3-|


  F#5         E5F#E5 F#5      D5                 E5
 4/4
   S  T  T  S S S  S  S  S  S  S  S  S  s  a      +S   +S   +S
|-------------0---------------------21-24-24b26==(24)-(24)r(24)\--||
|---------------0----------------20-------------------------------||
|-----------------15-------16s19----------------------------------||
|----16p14-----------16s17----------------------------------------||
|----------16-----------------------------------------------------||
|-14--------------------------------------------------------------||
|
|------------------------------------------------|
|  S  e       S S  S  S  S  S  S  S  S  S          S    E
|-----------------------------------------------------------------||
|-------------------------------------------------------5\--------||
|-------------------------------------------------------4\--------||
|------------------------------0--0--0--0----------2----2\--------||
|--4--4-------2-4--2--4--4-----0--0--0--0----------2--------------||
|--2--2-------0-2--0--2--2----------------------------------------||


  B5                      A5
   S  S  S  S  S  S  S  S  S  S  S  S S  T T  S  S
|-14-------15s14-------14s12-------12-9h10p9-------|
|----12-15----------12----------10-----------12-10-|
|----------------11-----------9--------------------|
|--------------------------------------------------|
|--------------------------------------------------|
|--------------------------------------------------|
|
|  H                       Q.                 S  S
|--------------------------------------------------|
|--------------------------------------------------|
|--4-----------------------2-----------------------|
|--4-----------------------2-----------------------|
|--2-----------------------0-----------------------|
|---------------------------------------------3--2-|


  E5                G5
   ~~~                            ~~
   Q    +E     S  S  S   S  S  S  E  S  S
|--------------------------------15-14-12-|
|-12---(12)\-/12-14s15--14-12-------------|
|-----------------------------12----------|
|-----------------------------------------|
|-----------------------------------------|
|-----------------------------------------|
|
|  Q.          S  S  Q.              S  S
|--------------------3--------------------|
|--------------------3--------------------|
|--------------------0--------------------|
|--2-----------------0--------------------|
|--2------------------------------------0-|
|--0-----------0--2--3---------------3----|


  B5                 A5 B5 A/C#                        D5
                                         |--3--|
   S   S  S  S  S  S  S  S  S   S  S  S  T  T  T  T  T  T  T  T  T
|-14--------15s14-------14s17--------17-19p17p15-------------------|
|-----12-15----------12--------14-17-------------19-17-15----------|
|-----------------11--------------------------------------18-16-14-|
|------------------------------------------------------------------|
|------------------------------------------------------------------|
|------------------------------------------------------------------|
|
|                     PM|
|  Q.                 S  S  Q.                          S     S
|------------------------------------------------------------------|
|------------------------------------------------------------------|
|--4---------------------------------------------------------------|
|--4------------------2--4--7---------------------------7-----7----|
|--2------------------0--2--4---------------------------5-----5----|
|------------------------------------------------------------------|


  E5                       Csus2
   ~~~                                      ~~~~
   Q    +S     S  S  S      +S   S   S  S   E.  +S
|-----------------------------------19-----20--(20)\-||
|----------------17-19b20==(19)-19r----17------------||
|-16---(16)\-/16-------------------------------------||
|----------------------------------------------------||
|----------------------------------------------------||
|----------------------------------------------------||
|
|  Q.             S  S       Q              Q
|----------------------------3-----------------------||
|----------------------------3-----------------------||
|----------------------------5-----------------------||
|--9-------------------------5-----------------------||
|--7-------------------------3-----------------------||
|--0--------------0--2--------------------/15\-------||


  F#5       E5F#5       E5F#B5A5  F#5       E5F#5       E5B5C5
                                 7/8
  Gtrs I, II
                              ~
  S S S S S S S S S S S S S S E   S S S S S S S S S S S S S S
|-------------------------------|-----------------------------|
|-------------------------------|-----------------------------|
|-------------------------------|-------------------------4s5-|
|-------------------------------|-------------------------4s5-|
|-4-4-x-x-4-2-4-4-x-x-4-2-4s9-7-|-4-4-x-x-4-2-4-4-x-x-4-2-2s3-|
|-2-2-x-x-2-0-2-2-x-x-2-0-2s7-5-|-2-2-x-x-2-0-2-2-x-x-2-0-2s3-|


  F#5       E5F#5       E5F#B5A5  F#5       E5F#5             C5C#E5
 4/4
                              ~                               PM--|
                                                  |-3-| |-3-| |-3-|
  S S S S S S S S S S S S S S E   S S S S S S S S S S S S S S E E E
|-------------------------------|-----------------------------------||
|-------------------------------|-----------------------------------||
|-------------------------------|-----------------------------------||
|-------------------------------|---------------------------------2-||
|-4-4-x-x-4-2-4-4-x-x-4-2-4s9-7-|-4-4-x-x-4-2-4-4-x-x-x-x-x-x-3-4-2-||
|-2-2-x-x-2-0-2-2-x-x-2-0-2s7-5-|-2-2-x-x-2-0-2-2-x-x-x-x-x-x-3-4-0-||


  F#5   E5  F#5 E5F#5   (G5)           F#5   E5  F#5 E5F#5             E5
 7/8                                  4/4
  Gtr III
  PM--|                 ~~~~~~~~~~~    PM--|                   ~~~~~~~~
  S S S S   +S  S S S S E.     +E      S S S S   +S  S S S S S E   +Q
|-----------------------0------(0)---|-------------------------9---(9)------|
|---------------------0--------------|-----------------------8--------------|
|-------3b4r(3)----------------------|-------3b4r(3)-----4s7----------------|
|-----4---------4--------------------|-----4---------4s5--------------------|
|---4-------------4s5----------------|---4----------------------------------|
|-2----------------------------------|-2------------------------------------|
|
| Gtrs I, II
| PM---------------------------------------------------------------------|
| S e   S    S  S S S S S  S S  S  S   S e   S    S  S S S S S S S  S  E S
|------------------------------------|--------------------------------------|
|------------------------------------|--------------------------------------|
|------------------------------------|--------------------------------------|
|----------------------------5-------|--------------------------------------|
|-4-4---2----4--2-4-4------5----5----|-4-4---2----4--2-4-4---4-4-4--4--2-2--|
|-2-2---0----2--0-2-2---3----------3-|-2-2---0----2--0-2-2---2-2-2--2--0-0--|


  F#5   E5   F#5 E5F#5   (G5)
 7/8
  PM--|                      ~~~~~~~~
  S S S  S   +S  S S S S  S  E   +E
|--------------------------------------|
|-------------------------7s=5---(5)---|
|---3---/6b7r(6)-----4s6-(6)s4---(4)---|
|-----4----------4-5-------------------|
|--------------------------------------|
|-2------------------------------------|
|
| PM------------------------------------
| S e    S    S  S S S S  S  S S  S  S
|--------------------------------------|
|--------------------------------------|
|--------------------------------------|
|------------------------------5-------|
|-4-4----2----4--2-4-4-------5----5----|
|-2-2----0----2--0-2-2----3----------3-|


  F#5     E5F#E5F#5   D5         E5
 4/4
  PM                    ~~~~           ~~~
  S T T S S S S S S S S S S  T T  T T  S   +S
|---------0---------------9-12p0-14p0-15--(15)\-|
|-----------0-----------8-----------------------|
|-------------3-----4s7-------------------------|
|---4p2---------4s5-----------------------------|
|-------4---------------------------------------|
|-2---------------------------------------------|
|
|--------------------------------|
| S e     S S S S S S S S S  S    S    E
|-----------------------------------------------|
|--------------------------------------5\-------|
|--------------------------------------4\-------|
|---------------------0-0-0--0----2----2\-------|
|-4-4-----2-4-2-4-4---0-0-0--0----2-------------|
|-2-2-----0-2-0-2-2-----------------------------|


  F#5      E5    F#5  E5 F#5      (G5)
 7/8
                                   ~~~
   S  S  S  S     +S   S  S  S  S  E.      +E
|-------------------------------------------------|
|---------------------------------17------(17)\---|
|----------15b16r(15)----------16-----------------|
|-------16------------16--------------------------|
|----16------------------16s17--------------------|
|-14----------------------------------------------|
|
|  PM----------------------------------------------
|  S  e     S      S   S  S  S  S  S  S S   S   S
|-------------------------------------------------|
|-------------------------------------------------|
|-------------------------------------------------|
|---------------------------------------5---------|
|--4--4-----2------4---2--4--4--------5-----5-----|
|--2--2-----0------2---0--2--2-----3------------3-|


  F#5      E5    F#5  E5 F#5                    E5
 4/4
                                                 ~~~
   S  S  S  S     +S   S  S  S  S  S  S  s S  a  E   +S
|------------------------------------21s24---24s21--(21)\-|
|---------------------------------20----------------------|
|----------15b16r(15)-------16s19-------------------------|
|-------16------------16s17-------------------------------|
|----16---------------------------------------------------|
|-14------------------------------------------------------|
|
|------------------------------------|
|  S  e     S      S   S  S  S  S  S  S  S S     E.
|---------------------------------------------------------|
|---------------------------------------------------------|
|---------------------------------------------------------|
|----------------------------------------4-2-----2--------|
|--4--4-----2------4---2--4--4--------4----------2--------|
|--2--2-----0------2---0--2--2-----2-------------0--------|


  F#5      E5     F#5  E5 F#5      (G5)
 7/8
                                                   T
                                       |--3--|              |------6-------|
   S  S  S   S     +S   S  S  S  S  S  T  T  T  X  X  X  X  T  T  T  T  T  T
|-------------------------------------------15h19h24p19p15-------------------|
|----------------------------------19----17----------------17----------------|
|----15----/18b19r(18)-------16s18----16----------------------16-------------|
|-------16-------------16-17-------------------------------------17p14-------|
|----------------------------------------------------------------------14----|
|-14----------------------------------------------------------------------15p|
|
|  PM-------------------------------------------------------------------------
|  S  e      S      S   S  S  S  S  S  S        S           S        S
|----------------------------------------------------------------------------|
|----------------------------------------------------------------------------|
|----------------------------------------------------------------------------|
|-----------------------------------------------5----------------------------|
|--4--4------2------4---2--4--4--------5--------------------5----------------|
|--2--2------0------2---0--2--2-----3--------------------------------3-------|


  F#5         E5F#E5 F#5      D5                 E5
 4/4
   S  T  T  S S S  S  S  S  S  S  S  S  s  a      +S   +S   +S
|-------------0---------------------21-24-24b26==(24)-(24)r(24)\--||
|---------------0----------------20-------------------------------||
|-----------------15-------16s19----------------------------------||
|----16p14-----------16s17----------------------------------------||
|----------16-----------------------------------------------------||
|-14--------------------------------------------------------------||
|
|------------------------------------------------|
|  S  e       S S  S  S  S  S  S  S  S  S          S    E
|-----------------------------------------------------------------||
|-------------------------------------------------------5\--------||
|-------------------------------------------------------4\--------||
|------------------------------0--0--0--0----------2----2\--------||
|--4--4-------2-4--2--4--4-----0--0--0--0----------2--------------||
|--2--2-------0-2--0--2--2----------------------------------------||


  B5                      A5
   S  S  S  S  S  S  S  S  S  S  S  S S  T T  S  S
|-14-------15s14-------14s12-------12-9h10p9-------|
|----12-15----------12----------10-----------12-10-|
|----------------11-----------9--------------------|
|--------------------------------------------------|
|--------------------------------------------------|
|--------------------------------------------------|
|
|  H                       Q.                 S  S
|--------------------------------------------------|
|--------------------------------------------------|
|--4-----------------------2-----------------------|
|--4-----------------------2-----------------------|
|--2-----------------------0-----------------------|
|---------------------------------------------3--2-|


  E5             G5
   ~~~    ~                    ~~
   E.   S E S  S  S   S  S  S  E  T  T  T  T
|-----------------------------15-14h15p14p12--|
|-12-----------------12-15--------------------|
|-----\11-9-9-11s12--------12-----------------|
|---------------------------------------------|
|---------------------------------------------|
|---------------------------------------------|
|
|  Q.       S  S  Q.              S     S
|-----------------3---------------------------|
|-----------------3---------------------------|
|-----------------0---------------------------|
|--2--------------0---------------------------|
|--2------------------------------------0-----|
|--0--------0--2--3---------------3-----------|


  B5                 A5 B5 A/C#                        D5
                                         |--3--|
   S   S  S  S  S  S  S  S  S   S  S  S  T  T  T  T  T  T  T  T  T
|-14--------15s14-------14s17--------17-19p17p15-------------------|
|-----12-15----------12--------14-17-------------19-17-15----------|
|-----------------11--------------------------------------18-16-14-|
|------------------------------------------------------------------|
|------------------------------------------------------------------|
|------------------------------------------------------------------|
|
|                     PM|
|  Q.                 S  S  Q.                          S     S
|------------------------------------------------------------------|
|------------------------------------------------------------------|
|--4---------------------------------------------------------------|
|--4------------------2--4--7---------------------------7-----7----|
|--2------------------0--2--4---------------------------5-----5----|
|------------------------------------------------------------------|


  E5                       G5
   ~~~                                           ~~~
   Q    +S     S  S  S      +S   S   T  T  T  T  E.  +S
|-----------------------------------22p19-------22--(22)\-||
|----------------17-19b20==(19)-19r-------20--------------||
|-16---(16)\-/16-----------------------------19-----------||
|---------------------------------------------------------||
|---------------------------------------------------------||
|---------------------------------------------------------||
|
|  Q.             S  S       Q                   Q
|----------------------------3-------------------3--------||
|----------------------------3-------------------3--------||
|----------------------------0-------------------0--------||
|--9-------------------------0-------------------0--------||
|--7------------------------------------------------------||
|--0--------------0--2-------3-------------------3--------||


  $
  D5                           Bb                    D5                            C5
 7/8
  Gtrs I, II
   PM---|                                ~~~~~~~                                           ~~
   S  S  S  S     +S   S  S  S  S  S  S  S  +S   S     S  S  S  S     +S   S  S  S  S   S  E    +E
|--------------------------------------------------|-----------14b15r(14)----------------------------|
|--------------------------------------------------|--------15------------15-------15--18-17---(17)\-|
|----------11b12r(11)-------------12-15-14-(14)-12-|-----14------------------14s15-------------------|
|-------12------------12-------12------------------|-/16---------------------------------------------|
|----12------------------12s13---------------------|-------------------------------------------------|
|-10-----------------------------------------------|-------------------------------------------------|
|
| Gtr IV
|  Q               Q            E     S  S  +S   S     Q               Q            E.       S  +E
|--------------------------------------------------|-------------------------------------------------|
|--3---------------3------------------3--3--(3)--5-|---3---------------3-----------------------------|
|--2---------------2------------3-----3--3--(3)--3-|---2---------------2------------5--------5--(5)--|
|--0---------------0------------3------------------|---0---------------0------------5--------5--(5)--|
|--0---------------0-------------------------------|---0---------------0------------3--------3--(3)--|
|--------------------------------------------------|-------------------------------------------------|


  D5                           Bb
   PM---|                                ~~~~~~~
   S  S  S  S     +S   S  S  S  S  S  S  S  +S   S
|----------------------------------------------------|
|----------------------------------------------------|
|----------11b12r(11)-------------12-15-14-(14)-12---|
|-------12------------12-------12--------------------|
|----12------------------12s13-----------------------|
|-10-------------------------------------------------|
|
|  Q               Q            E     S  S  +S   S
|----------------------------------------------------|
|--3---------------3------------------3--3--(3)--5---|
|--2---------------2------------3-----3--3--(3)--3---|
|--0---------------0------------3--------------------|
|--0---------------0---------------------------------|
|----------------------------------------------------|


  D5          A/C# B5      A5
 6/8
  Gtr I
      PM|            PM|
   S  S  S  S S  S S S S S S S
|------------------------------|
|------------------------------|
|-11-------11-9----7-----7-6---|
|---------------11-----------7-|
|-------12-------------9-------|
|----10--------------7---------|
|
| Gtr II
|     PM|            PM|
|  S  S  S  S S  S S S S S S S
|------------------------------|
|------------------------------|
|-11-------11-9----7-----7-6---|
|---------------11-----------7-|
|-------12-------------9-------|
|----10--------------7---------|
|
| Gtr IV
|  Q          E    Q       E
|------------------------------|
|------------------------------|
|--7---------------4-------2---|
|--7----------7----4-------2---|
|--5----------4----2-------0---|
|------------------------------|


  G5      (F#5E5     (F#5)    G5          A5
                             5/8
    PM|       PM----------------|         PM|
  S S S S S S S  S S S  S S   S S S S  S  S  S  S S S
|---------------------------|-------------------------|
|---------------------------|-------------------------|
|-4-----4-2-----------------|-----4-6--7--------6-7-9-|
|-----------4----4-5----4-5-|-------------------------|
|-----5---------------------|---5------------7--------|
|---3---------0------2------|-3-----------5-----------|
|
|   PM|       PM----------------|         PM|
| S S S S S S S  S S S  S S   S S S S  S  S  S  S S S
|---------------------------|-------------------------|
|---------------------------|-----3-5--7--------5-7-8-|
|-4-----4-2-----------------|-------------------------|
|-----------4----4-5----4-5-|-------------------------|
|-----5---------------------|---5------------7--------|
|---3---------0------2------|-3-----------5-----------|
|
| Q       E   E.     E.       Q       +S  S +Q
|-3-------------------------|-3-------(3)-------------|
|-3-------------------------|-3-------(3)-------------|
|-0-------------------------|-0-------(0)-2-(2)-------|
|-0-----------2-------------|-0-------(0)-2-(2)-------|
|-------------2-------------|-------------0-(0)-------|
|-3-------2---0------2------|-3-------(3)-------------|


  D5                           Bb                    D5                            C5
 7/8
  Gtrs I, II
   PM---|                                ~~~~~~~
   S  S  S  S     +S   S  S  S  S  S  S  S  +S   S     S  S  S  S     +S   S  S  S  S   S  Q
|--------------------------------------------------|-----------14b15r(14)------------------------------|
|--------------------------------------------------|--------15------------15-------15--18-17tr18-------|
|----------11b12r(11)-------------12-15-14-(14)-12-|-----14------------------14s15---------------------|
|-------12------------12-------12------------------|-/16-----------------------------------------------|
|----12------------------12s13---------------------|---------------------------------------------------|
|-10-----------------------------------------------|---------------------------------------------------|
|
| Gtr IV
|  Q               Q            E     S  S  +S   S     Q               Q            E.           S +E
|--------------------------------------------------|---------------------------------------------------|
|--3---------------3------------------3--3--(3)--5-|---3---------------3-------------------------------|
|--2---------------2------------3-----3--3--(3)--3-|---2---------------2------------5------------5-(5)-|
|--0---------------0------------3------------------|---0---------------0------------5------------5-(5)-|
|--0---------------0-------------------------------|---0---------------0------------3------------3-(3)-|
|--------------------------------------------------|---------------------------------------------------|


  D5                           Bb
   PM---|                                ~~~~~~~
   S  S  S  S     +S   S  S  S  S  S  S  S  +S   S
|----------------------------------------------------|
|----------------------------------------------------|
|----------11b12r(11)-------------12-15-14-(14)-12---|
|-------12------------12-------12--------------------|
|----12------------------12s13-----------------------|
|-10-------------------------------------------------|
|
|  Q               Q            E     S  S  +S   S
|----------------------------------------------------|
|--3---------------3------------------3--3--(3)--5---|
|--2---------------2------------3-----3--3--(3)--3---|
|--0---------------0------------3--------------------|
|--0---------------0---------------------------------|
|----------------------------------------------------|


                                    To Coda
  D5          A/C# B5      A5    G5      (F#5)
 6/8                            3/8
      PM|            PM|           PM|
   S  S  S  S S  S S S S S S S   S S S S S S
|------------------------------|-------------|
|------------------------------|-------------|
|-11-------11-9----7-----7-6---|-4-----4-2---|
|---------------11-----------7-|-----------4-|
|-------12-------------9-------|-----5-------|
|----10--------------7---------|---3---------|
|
|  Q          E    Q       E     Q       E
|------------------------------|-3-----------|
|------------------------------|-3-----------|
|--7---------------4-------2---|-0-----------|
|--7----------7----4-------2---|-0-----------|
|--5----------4----2-------0---|-------------|
|------------------------------|-3-------2---|


  A5                 G5
 6/8
                     Gtr III
   ~~~~~~~~~               ~~~
   Q.    Q   +E      Q.    E. E T T
|-----------------||-----------------|
|-----------------||------/8--7h8p7--|
|-----------------||-----------------|
|-/7----[7]--(7)\-||-----------------|
|-----------------||-----------------|
|-----------------||-----------------|
|
|                    Gtrs I, II
|  Q.    Q.          Q.    Q.
|-----------------||-3-----3---------|
|-----------------||-3-----3---------|
|--2-----2--------||-0-----0---------|
|--2-----2--------||-0-----0---------|
|--0-----0--------||-----------------|
|-----------------||-3-----3---------|


  A5                        B5
  ~~                          ~~~~~
  Q.   a E  E  S S    a      +Q.     a      +S   +S  S a     +S  +S  S
|------------------|---------------------------------------------------|
|-5-----------10---|-10b12==(10)r---10b12==(10)r(10)-7-----------------|
|------9s6--7------|-----------------------------------9b10==(9)r(9)-7-|
|----------------7-|---------------------------------------------------|
|------------------|---------------------------------------------------|
|------------------|---------------------------------------------------|
|
| Q.     Q.                   Q.             Q.
|------------------|---------------------------------------------------|
|------------------|---------------------------------------------------|
|-2------2---------|----------4--------------4-------------------------|
|-2------2---------|----------4--------------4-------------------------|
|-0------0---------|----------2--------------2-------------------------|
|------------------|---------------------------------------------------|


  E5                              G5
           ~~~~     ~~~           ~~     ~~~~~
  S  a    +E.  S S  E. +S   E     E. E S E. E +S
|-------------------------------|------------------|
|-5-----------------------------|------------------|
|----7b9==(7)r-7-4--4--(4)\-----|----7---6--7-(7)\-|
|-------------------------------|-5----5-----------|
|-------------------------------|------------------|
|-------------------------------|------------------|
|
| Q.                Q       S S   Q.     Q.
|-------------------------------|-3------3---------|
|-------------------5-----------|-3------3---------|
|-------------------4-----------|-0------0---------|
|-2-----------------2-----------|-0------0---------|
|-2-----------------2-----------|------------------|
|-0----------------(0)------0-2-|-3------3---------|


  A5
   ~~~
   E. E S T   T  T T  T  T T  T  T  T  T  T
|-------------------------------------------||
|----------------------------------10-12s14-||
|-----7------------9-11-12-9-11-12----------||
|-/7----7-9--11-12--------------------------||
|-------------------------------------------||
|-------------------------------------------||
|
|  Q.     Q.
|-------------------------------------------||
|-------------------------------------------||
|--2------2---------------------------------||
|--2------2---------------------------------||
|--0------0---------------------------------||
|-------------------------------------------||


  Dsus2              N.C.(D)                           Csus2
 4/4
                                                         >
   W                                   +H               +H
|-----------------------------------|--------------------------------|
|-15--------------------------------|-(15)-------------(15)----------|
|-----------------------------------|--------------------------------|
|-----------------------------------|--------------------------------|
|-----------------------------------|--------------------------------|
|-----------------------------------|--------------------------------|
|
|                           ~~          ~~~~
|  Q   E S S +S   S   S  S  E  S  S     E. S  S  S  E    E. S +S  E.
|------0----------------------------|-----------------------3-(3)----|
|-(3)----3--------------------------|-----------------------------3--|
|--2-------2-(2)-----12-14-15-14-12-|--11----11h12-11\---5-----------|
|--0--------------0---0--0--0--0--0-|---0--0--0-----0----5-----------|
|--0-------------(0)----------------|--------------------3-----------|
|-----------------------------------|-------------------(3)----------|


  Dsus2              (D)                              C5Bb5G5F5
  Gtrs I, II
                            ~~         ~~~
   Q   E S S +S   S   S  S  E  S  S    E. S  S  S  E  S E. S E.
|------0----------------------------|---------------------------|
|-(3)----3--------------------------|---------------------------|
|--2-------2-(2)-----12-14-15-14-12-|-11----11h12-11\-5-3-------|
|--0--------------0---0--0--0--0--0-|--0--0--0-----0--5-3--5-3--|
|--0-------------(0)----------------|-----------------3-1--5-3--|
|-----------------------------------|----------------------3-1--|


  Dsus2              (D)
                            ~~
   Q   E S S +S   S   S  S  E  S  S
|------0-----------------------------|
|-(3)----3---------------------------|
|--2-------2-(2)-----12-14-15-14-12--|
|--0--------------0---0--0--0--0--0--|
|--0-------------(0)-----------------|
|------------------------------------|


                  Csus2
   ~~~
   E. S  S  S  E   E. S +S  E.
|---------------------3-(3)----|
|---------------------------3--|
|-11----11h12-11\--5-----------|
|--0--0--0-----0---5-----------|
|------------------3-----------|
|-----------------(3)----------|


  Dsus2              (D)                              C5Bb5 G5F5
                            ~~         ~~~
   Q   E S S +S   S   S  S  E  S  S    E. S  S  S  E  S S E S S E
|------0----------------------------|-----------------------------||
|-(3)----3--------------------------|-----------------------------||
|--2-------2-(2)-----12-14-15-14-12-|-11----11h12-11\-5-3---------||
|--0--------------0---0--0--0--0--0-|--0--0--0-----0--5-3---5-3---||
|--0-------------(0)----------------|-----------------3-1---5-3---||
|-----------------------------------|-----------------------3-1---||


    Double Time Q=136
    A5          N.C.
    Gtr IV
                              PM~~
    E S S +S  S E      +E   E S E.
||---------------------------------|
||o--------------------------------|
||--2-2-2-(2)-2-----------------2--|
||--2-2-2-(2)-2--------------------|
||o-0-0-0-(0)-0-3b3.5==(3)rp0-0----|
||---------------------------------|


  A5                 N.C.               G5   A5          N.C.
                                                                       PM~~
                            |-3-| |-3-|
  E S S +S  S a      +S   S S S S S S S Q    E S S +S  S E      +E   E S E.
|---------------------------------------3--|--------------------------------|
|---------------------------------------3--|--------------------------------|
|-2-2-2-(2)-2---------------4p2p0-------0--|-2-2-2-(2)-2-----------------2--|
|-2-2-2-(2)-2---------------------4p2p0-0--|-2-2-2-(2)-2--------------------|
|-0-0-0-(0)-0-3b3.5==(3)rp0----------------|-0-0-0-(0)-0-3b3.5==(3)rp0-0----|
|---------------------------------------3--|--------------------------------|


  A5                 N.C.   G5 D5
  E S S +S  S a      +S   S Q   Q
|---------------------------3--------||-|
|---------------------------3---3---o||-|
|-2-2-2-(2)-2---------------0---2----||-|
|-2-2-2-(2)-2---------------0---0----||-|
|-0-0-0-(0)-0-3b3.5==(3)rp0----(0)--o||-|
|---------------------------3--------||-|


    N.C.(F#5)                                 A       B
    PM|         PM|             PM|         PM  PM|
    E S S +S  S E S E S S S E   E S S +S  S E E S S S E.
||----------------------------|---------------------------|
||o---------------------------|---------------2-----2s4---|
||----------------------------|---------------2-----2s4---|
||------4-(4)-4-----2-2-----2-|-----4-(4)-4---2-----2s4---|
||o---------------------2h4---|---------------------------|
||--2-2---------2-2-----------|-2-2---------2---2-2-------|


                              1.
  (F#5)
  PM|         PM|             PM|
  E S S +S  S E S E S S S E   E S S +S  S S S S S S S S S S S
|---------------------------|----------------------------------||
|---------------------------|---------------------------------o||
|---------------------------|----------------------------------||
|-----4-(4)-4-----2-2-----2-|-----4-(4)-4-4p2-4-2--------------||
|---------------------2h4---|---------------------4-3-2-0-----o||
|-2-2---------2-2-----------|-2-2-------------------------2-0--||


  2.
  PM|
                  |-3-|
  E S S +S  S S S S S S S S S S S S
|-----------------------------------||
|-----------------------------------||
|-----------------2h3p2-------------||
|-----4-(4)-4-4-4-------4-2---------||
|---------------------------4-3-2-0-||
|-2-2-------------------------------||


    Ebm7                       N.C.                Ebm7                          N.C.
     S  S  S   S   +E   E  +E  S S S S S S  4x      S  S  S   S   +E      E  +E   S  S  S  S  S S  3x
||-----------(11)-(11)----------------------||-||-----------(11)-(11)------------------------------||
||o-----------11--(11)---------------------o||-||o-----------11--(11)-----------------------------o||
||------------11--(11)----------------------||-||------------11--(11)------------------------------||
||------------11--(11)----------------------||-||------------11--(11)------------------------------||
||o----------------------------------------o||-||o------------------------------------------------o||
||--11-11-11-----------11-(11)-9-9-9-9-9-9--||-||--11-11-11--------------11-(11)--9--9--9--9--9-9--||
|
|   Gtr II
|                                                                         ~~~~~~~
|    W                                      4x      S  S  S   S   +S   S  E  +E   S  S  S  E.      3x
||------------------------------------------||-||--14-14-14--14--(14)-14---------------------------||
||o----------------------------------------o||-||o-13-13-13--13--(13)-13-11-(11)-13-11-13-11------o||
||------------------------------------------||-||------------------------11-(11)-13-11-13-11-------||
||------------------------------------------||-||--------------------------------------------------||
||o----------------------------------------o||-||o------------------------------------------------o||
||------------------------------------------||-||--------------------------------------------------||


  Ebm7                          N.C.
   S  S  S   S   +E      E  +E   S  S  S  S S S
|----------(11)-(11)----------------------------||
|-----------11--(11)----------------------------||
|-----------11--(11)----------------------------||
|-----------11--(11)----------------------------||
|-----------------------------------------------||
|-11-11-11--------------11-(11)--9--9--9--9-9-9-||
|
|                        ~~~~~~~
|  S  S  S   S   +S   S  E  +E   S  S  Q
|-14-14-14--14--(14)-14-------------------------||
|-13-13-13--13--(13)-13-11-(11)-13-11-13\-------||
|-----------------------11-(11)-13--------------||
|-----------------------------------------------||
|-----------------------------------------------||
|-----------------------------------------------||


    Cm7             N.C.
                    PM--------|
    E S S +E  E +E  S S S S S S
||------------------------------|
||o-----4-(4)-------------------|
||------3-(3)-------------------|
||------------------------------|
||o-3-3-------3-(3)---------1-1-|
||------------------1-1-3-3-----|


  Cm7               N.C.          Cm7               N.C.
                    PM--------|                     PM--------|
  S S S S +E  E +E  S S S S S S   S S S S +E  E +E  S S S S S S
|-------------------------------|-------------------------------|
|-------4-(4)-------------------|-------4-(4)-------------------|
|-------3-(3)-------------------|-------3-(3)-------------------|
|-------------------------------|-------------------------------|
|-3-3-3-------3-(3)---------1-1-|-3-3-3-------3-(3)---------1-1-|
|-------------------1-1-3-3-----|-------------------1-1-3-3-----|


                              Guitar Solo
  Cm7             Dm7                A5             N.C.
                               Gtr III
              PM|   PM|               ~~~~
  S S S S +E  S S E S S Q      a     +H                     S   S S S S S  S S
|---------------------------||------------------------------5------------------|
|-------4-(4)-----6-----6--o||-8b10==(8)r-----------------------8-5------------|
|-------3-(3)-----5-----5---||--------------------------------------8-7-5------|
|-----------------0-----0---||---------------------------------------------7-5-|
|-3-3-3-------3-3---3-3----o||-------------------------------------------------|
|---------------------------||-------------------------------------------------|
|
|                              Gtr IV
|                                                                     PM~~
| W                                   E   S S +S  S E      +E     E   S E.
|---------------------------||-------------------------------------------------|
|--------------------------o||-------------------------------------------------|
|---------------------------||--------2---2-2-(2)-2---------------------2------|
|---------------------------||--------2---2-2-(2)-2----------------------------|
|--------------------------o||--------0---0-0-(0)-0-3b3.5==(3)rp==0---0--------|
|---------------------------||-------------------------------------------------|


  A5                   N.C.                    G5
  S S S S  S  S         S   S S   S   S   S    S S S S
|--------------------------------------------------------|
|--------------------------------------------------------|
|-5h6-----------------------5----------------------------|
|-----7----5--6---------7-----7---5----------------------|
|-------7-----------------------------7---5\---5-3-------|
|--------------------------------------------------5-3---|
|
|                             |--3--| |--3---|
| E   S S +S  S a      +S   S S S   S S S    S Q
|----------------------------------------------3---------|
|----------------------------------------------3---------|
|-2---2-2-(2)-2---------------4p2p==0----------0---------|
|-2---2-2-(2)-2-----------------------4p2p===0-0---------|
|-0---0-0-(0)-0-3b3.5==(3)rp0----------------------------|
|----------------------------------------------3---------|


  A5          N.C.
                                   |---3----|
  E S S  S  S S      S  S   S S S  E     E  E
|---------------------------------------------|
|---------------------------------------------|
|---------------------------------------------|
|---------------------------------/7----10-11-|
|-0-3p0--5p=0-6p=====0--7p==0-7p5-------------|
|---------------------------------------------|
|
|                                  PM~~
| E S S +S  S E        +E     E    S E.
|---------------------------------------------|
|---------------------------------------------|
|-2-2-2-(2)-2------------------------2--------|
|-2-2-2-(2)-2---------------------------------|
|-0-0-0-(0)-0-3b3.5====(3)rp==0----0----------|
|---------------------------------------------|


  A5                       N.C.      G5   D5
                                       ~~~
  |--3--|    |---------3---------|
  E E   E    E    E              E     H
|-----------------------------------------------|
|------------8----9-------------10---/10--------|
|-7-8---9---------------------------------------|
|-----------------------------------------------|
|-----------------------------------------------|
|-----------------------------------------------|
|
| E   S   S +S  S   a      +S      S   Q   Q
|--------------------------------------3--------|
|--------------------------------------3---3----|
|-2---2---2-(2)-2----------------------0---2----|
|-2---2---2-(2)-2----------------------0---0----|
|-0---0---0-(0)-0---3b3.5==(3)rp===0------(0)---|
|--------------------------------------3--------|


  A5                  N.C.
   |-3--|
   S  S S  S  S  S  S  S      S  S   S  S S  S S  S S
|-11p10p8-10-----8h=9---------------------8-----------|
|------------10-------10---------8---9-10---10-9--8---|
|-----------------------------9---------------------9-|
|-----------------------------------------------------|
|-----------------------------------------------------|
|-----------------------------------------------------|
|
|                                            PM~~
|  E       S  S +S  S  E        +E      E    S E.
|-----------------------------------------------------|
|-----------------------------------------------------|
|--2-------2--2-(2)-2--------------------------2------|
|--2-------2--2-(2)-2---------------------------------|
|--0-------0--0-(0)-0--3b3.5====(3)rp===0----0--------|
|-----------------------------------------------------|


  A5                   N.C.                     G5
  S S S S  S  S         S    S S    S   S   S   S  S S  S
|---------------------------------------------------------|
|-------8-------------------------------------------------|
|-7h8h9----9p=8---------7---------------7h==8p==7---------|
|---------------------------10-7h==10-------------10-7----|
|------------------------------------------------------10-|
|---------------------------------------------------------|
|
|                              |--3---| |--3--|
| E   S S +S  S a      +S    S S S    S S S   S Q
|-----------------------------------------------3---------|
|-----------------------------------------------3---------|
|-2---2-2-(2)-2----------------4p2p===0---------0---------|
|-2---2-2-(2)-2-------------------------4p2p==0-0---------|
|-0---0-0-(0)-0-3b3.5==(3)rp=0----------------------------|
|-----------------------------------------------3---------|


  A5                            N.C.
  |--3--| |---3---|  |---3----| |----3----|  |---3---| |-3--| |---3---| |--3--|
  S  S  S S  S    S  S   S    S S      S  S  S    S  S S S  S S S     S S  S  S
|-------------------------------------------------------------------------------|
|-----------------------------------------------------------------------8-10-13-|
|-------------------------------7------9-12------------7-9-12-7-9----12---------|
|---------7-10---12--7--10---12--------------7---10-12--------------------------|
|-7-10-12-----------------------------------------------------------------------|
|-------------------------------------------------------------------------------|
|
|                                                             PM  ~~
| E       S    S    +S     S    E           +E         E      S   E.
|-------------------------------------------------------------------------------|
|-------------------------------------------------------------------------------|
|-2-------2----2----(2)----2--------------------------------------2-------------|
|-2-------2----2----(2)----2----------------------------------------------------|
|-0-------0----0----(0)----0----3b3.5=======(3)rp======0------0-----------------|
|-------------------------------------------------------------------------------|


  A5                                   N.C.         G5               D5
  |--3--| |---3---|  |---3----|         |----3----|  |--3--| |--3--|  |--3---|  |-3--|
  S  S  S S  S    S  S   S    S         S    S    S  S  S  S S  S  S  S   S  S  S  S S
|---------8-10---11-12--11---10---------8---10---11-12-11-10-8-------------------------||
|-8-10-13------------------------------------------------------13-10--8--10-13-13-10-8-||
|--------------------------------------------------------------------------------------||
|--------------------------------------------------------------------------------------||
|--------------------------------------------------------------------------------------||
|--------------------------------------------------------------------------------------||
|
| E       S    S    +S     S    a      +S      S     Q                Q
|----------------------------------------------------3---------------------------------||
|----------------------------------------------------3----------------3----------------||
|-2-------2----2----(2)----2-------------------------0----------------2----------------||
|-2-------2----2----(2)----2-------------------------0----------------0----------------||
|-0-------0----0----(0)----0----3b3.5==(3)rp===0---------------------(0)---------------||
|----------------------------------------------------3---------------------------------||


  N.C.(F#5)
   ~~
   H              a      +H
|---------------------------------------|
|----------------17b19==(17)r-----------|
|-11------------------------------------|
|---------------------------------------|
|---------------------------------------|
|---------------------------------------|
|
|  PM|         PM-------|
|  E S S +S  S E          S   E S S S E
|---------------------------------------|
|---------------------------------------|
|---------------------------------------|
|------4-(4)-4----------------2-2-----2-|
|---------------------------------2h4---|
|--2-2---------2----------2-------------|


                           A              B
   S  S  S  S  S   S  S  S  S  S  S  S  S  S   S  S
|-14-18-14----14--17-14----16p14-------14-----------|
|----------17-----------17-------17-16----17--16-15-|
|---------------------------------------------------|
|---------------------------------------------------|
|---------------------------------------------------|
|---------------------------------------------------|
|
|  PM---|             PM          PM|
|  E     S  S +S   S  E     E     S  S  S  E.
|---------------------------------------------------|
|---------------------------2-----------2s=4--------|
|---------------------------2-----------2s=4--------|
|-----------4-(4)--4--------2-----------2s=4--------|
|---------------------------------------------------|
|--2-----2------------2-----------2--2--------------|


  (F#5)
                           ~~~~~
   S  S  S  S  S   S      +E    S  S  S  S  S  S  S  S
|------------------------------17----14----------------|
|-14--------------17b19==(17)r----17----14-17----14----|
|----17-16-15-14------------------------------16----14-|
|------------------------------------------------------|
|------------------------------------------------------|
|------------------------------------------------------|
|
|  PM---|                  PM--|
|  E     S  S +S   S       E    S  E     S  S  S  E
|------------------------------------------------------|
|------------------------------------------------------|
|------------------------------------------------------|
|-----------4-(4)--4---------------2-----2--------2----|
|-------------------------------------------2h=4-------|
|--2-----2-----------------2----2----------------------|


         ~~                            ~~                                           ~~~
   S  S  E    S   S  S  S  S  S  S  S  Q          a      +Q       +S   +S   +S   S  Q.          +E
|----------------------------------------------|-19b21==(19)-----(19)-(19)r(19)-17-------------------|
|----------------------------------------------|-----------------------------------19----------(19)\-|
|-16----14-------------------------------------|-----------------------------------------------------|
|----16------16-----14-------------------------|-----------------------------------------------------|
|----------------16----14-16-12-14-------------|-----------------------------------------------------|
|----------------------------------12-14-------|-----------------------------------------------------|
|
|  PM---|                                                 PM-|               PM----|
|  E     S S +S   S  S  S  S  S  S  S  S S S S            E  S S  +S    S    E      S  E S S S   E
|----------------------------------------------|-----------------------------------------------------|
|----------------------------------------------|-----------------------------------------------------|
|----------------------------------------------|-----------------------------------------------------|
|----------4-(4)--4--4p=2--4--2----------------|---------------4--(4)---4--------------2-2-------2---|
|--------------------------------4--3--2-0-----|-------------------------------------------2h4-------|
|--2-----2---------------------------------2-0-|----------2--2---------------2------2----------------|


                                    A         B
                                     ~~~
   a      +Q       +S   +S   +S   S  Q.           +E
|-21b24==(21)-----(21)-(21)r(21)-17-----------------------|
|-----------------------------------19-----------(19)\----|
|---------------------------------------------------------|
|---------------------------------------------------------|
|---------------------------------------------------------|
|---------------------------------------------------------|
|
|          PM-|               PM        PM|
|          E  S S  +S    S    E      E  S S S E.
|---------------------------------------------------------|
|------------------------------------2------2s4-----------|
|------------------------------------2------2s4-----------|
|---------------4--(4)---4-----------2------2s4-----------|
|---------------------------------------------------------|
|----------2--2---------------2---------2-2---------------|


         (F#5)
                                             ~~~
   a      +E.     S      +E     S      +S    Q.          +E
|-24b26==(24)r------------------------------19----------(19)\-|
|----------------24pb26r(24)---22b23==(22)r-------------------|
|-------------------------------------------------------------|
|-------------------------------------------------------------|
|-------------------------------------------------------------|
|-------------------------------------------------------------|
|
|          PM--|                PM----------|
|          E   S  S      +S  S  E            S  E S S S   E
|-------------------------------------------------------------|
|-------------------------------------------------------------|
|-------------------------------------------------------------|
|-----------------4------(4)-4------------------2-2-------2---|
|---------------------------------------------------2h4-------|
|----------2---2----------------2------------2----------------|


                                                   ~~
   T  T  T  T  T  T  T  T  T   T  T  T  T  T  T  T Q         +Q
|-19s17-16-14-----------------------------------------------------------||
|-------------17-16-14--------------------------------------------------||
|----------------------16s14--13-11-------------------------------------||
|-----------------------------------14-13-11----------------------------||
|--------------------------------------------14s12-9---------(9)\-------||
|-----------------------------------------------------------------------||
|
|  PM---------|
|                                                  |-3-|
|  E           S     S    +S      S     S     S    S S S S S  S   S S S
|-----------------------------------------------------------------------||
|-----------------------------------------------------------------------||
|--------------------------------------------------2h3p2----------------||
|--------------------4----(4)-----4-----4-----4----------4-2------------||
|-------------------------------------------------------------4---3-2-0-||
|--2-----------2--------------------------------------------------------||


  Ebm7                                          N.C.
   Q.                     +S    S   S      +S    S  S      +S    S  S      +S
|------------------------------11---------------11--------------11--------------|
|-13b16==================(13)r-----14b16==(14)r----13b14==(13)r----14b16==(14)r-|
|-------------------------------------------------------------------------------|
|-------------------------------------------------------------------------------|
|-------------------------------------------------------------------------------|
|-------------------------------------------------------------------------------|
|
|  S      S  S   S   +E    E       +E            S  S       S    S  S       S
|--------------(11)-(11)--------------------------------------------------------|
|---------------11--(11)--------------------------------------------------------|
|---------------11--(11)--------------------------------------------------------|
|---------------11--(11)--------------------------------------------------------|
|-------------------------------------------------------------------------------|
|-11-----11-11------------11------(11)-----------9--9-------9----9--9-------9---|


  Ebm7                                       N.C.
   S  S      +S     S    S   S  S  S   S   S  S  S  S  S  S  S
|-11---------------11-------11--------11-----------------------|
|----13b14==(13)r-------14-----14-13------14-13-12-11----------|
|-----------------------------------------------------14-13-12-|
|--------------------------------------------------------------|
|--------------------------------------------------------------|
|--------------------------------------------------------------|
|
|  S  S       S     S   +E      E     +E      S  S  S  S  S  S
|-----------------(11)-(11)------------------------------------|
|------------------11--(11)------------------------------------|
|------------------11--(11)------------------------------------|
|------------------11--(11)------------------------------------|
|--------------------------------------------------------------|
|-11-11------11----------------11----(11)-----9--9--9--9--9--9-|


         Ebm7                             N.C.
   a      +H                          +E   +E     E     a       +E
|-14b16==(14)b17=====================(14)-(14)r==14---(14)b16==(14)r---|
|----------------------------------------------------------------------|
|----------------------------------------------------------------------|
|----------------------------------------------------------------------|
|----------------------------------------------------------------------|
|----------------------------------------------------------------------|
|
|          S       S  S   S   +E   E  +E    S  S  S S            S   S
|-----------------------(11)-(11)--------------------------------------|
|------------------------11--(11)--------------------------------------|
|------------------------11--(11)--------------------------------------|
|------------------------11--(11)--------------------------------------|
|----------------------------------------------------------------------|
|---------11------11-11-----------11-(11)---9--9--9-9------------9---9-|


  Ebm7                                           N.C.
                                              ~~~~
   |-----3-----|               |----3-----|
   E     E     E       a      +E    E     E   Q       +Q
|-11--------------------------------------------------------------|
|-------14----11-------------------11-----------------------------|
|---------------------13b15==(13)r-------11-----------------------|
|--------------------------------------------13------(13)\--------|
|-----------------------------------------------------------------|
|-----------------------------------------------------------------|
|
|  S  S     S      S          +E       E     +E  S S   S   S S S
|----------------(11)--------(11)---------------------------------|
|-----------------11---------(11)---------------------------------|
|-----------------11---------(11)---------------------------------|
|-----------------11---------(11)---------------------------------|
|-----------------------------------------------------------------|
|-11-11----11-------------------------11----(11)-9-9---9---9-9-9--|


  Ebm7                                                     N.C.
   |---3----|  |----3-----|   |--3---|  |--3--|   |--3---|  |---3---|  |---3---|  |---3---|
   S  S     S  S  S       S   S   S  S  S  S  S   S   S  S  S  S    S  S  S    S  S  S    S
|-14-16----14-11-------------14--16-14-11--------14--16-14-11---------14-16---14-11---------|
|----------------14------11---------------14-11---------------14---11---------------14---11-|
|-------------------------------------------------------------------------------------------|
|-------------------------------------------------------------------------------------------|
|-------------------------------------------------------------------------------------------|
|-------------------------------------------------------------------------------------------|
|
|  S     S     S      S      +E         E        +E         S    S     S    S     S    S
|-------------------(11)----(11)------------------------------------------------------------|
|--------------------11-----(11)------------------------------------------------------------|
|--------------------11-----(11)------------------------------------------------------------|
|--------------------11-----(11)------------------------------------------------------------|
|-------------------------------------------------------------------------------------------|
|-11----11----11-----------------------11-------(11)--------9----9-----9----9-----9----9----|


  Ebm7                                                     N.C.
   |---3----|  |----3-----|   |--3---|  |--3--|   |--3---|  |---3---|  |---3---|  |---3---|
   S  S     S  S  S       S   S   S  S  S  S  S   S   S  S  S  S    S  S  S    S  S  S    S
|-18-17----16-14--------------------14-16-17-18--18--17-16-14-----------------14-16-17---18-|
|----------------16------14--15--16---------------------------16---14-15-16-----------------|
|-------------------------------------------------------------------------------------------|
|-------------------------------------------------------------------------------------------|
|-------------------------------------------------------------------------------------------|
|-------------------------------------------------------------------------------------------|
|
|  S     S     S      S      +E         E        +E         S    S     S    S     S    S
|-------------------(11)----(11)------------------------------------------------------------|
|--------------------11-----(11)------------------------------------------------------------|
|--------------------11-----(11)------------------------------------------------------------|
|--------------------11-----(11)------------------------------------------------------------|
|-------------------------------------------------------------------------------------------|
|-11----11----11-----------------------11-------(11)--------9----9-----9----9-----9----9----|


  Ebm7                                                     N.C.
   |---3----|  |----3-----|   |--3---|  |--3--|   |--3---|  |---3---|  |---3---|  |---3---|
   S  S     S  S  S       S   S   S  S  S  S  S   S   S  S  S  S    S  S  S    S  S  S    S
|-21-18----16-18-21------18--16--18-21-18-16-18--21--18-16-18-21---18-16-18---21-18-16---18-|
|-------------------------------------------------------------------------------------------|
|-------------------------------------------------------------------------------------------|
|-------------------------------------------------------------------------------------------|
|-------------------------------------------------------------------------------------------|
|-------------------------------------------------------------------------------------------|
|
|  S     S     S      S      +E         E        +E         S    S     S    S     S    S
|-------------------(11)----(11)------------------------------------------------------------|
|--------------------11-----(11)------------------------------------------------------------|
|--------------------11-----(11)------------------------------------------------------------|
|--------------------11-----(11)------------------------------------------------------------|
|-------------------------------------------------------------------------------------------|
|-11----11----11-----------------------11-------(11)--------9----9-----9----9-----9----9----|


  Ebm7                                                     N.C.
   |---3----|  |----3-----|   |--3---|  |--3--|   |--3---|  |---3---|  |---3---|  |---3---|
   S  S     S  S  S       S   S   S  S  S  S  S   S   S  S  S  S    S  S  S    S  S  S    S
|-23-21----18-21-23------21--18--21-23-21-18-21--23--21-18-21-23---21-18-21---23-21-18---21-||
|-------------------------------------------------------------------------------------------||
|-------------------------------------------------------------------------------------------||
|-------------------------------------------------------------------------------------------||
|-------------------------------------------------------------------------------------------||
|-------------------------------------------------------------------------------------------||
|
|  S     S     S      S      +E         E        +E         S    S     S    S     S    S
|-------------------(11)----(11)------------------------------------------------------------||
|--------------------11-----(11)------------------------------------------------------------||
|--------------------11-----(11)------------------------------------------------------------||
|--------------------11-----(11)------------------------------------------------------------||
|-------------------------------------------------------------------------------------------||
|-11----11----11-----------------------11-------(11)--------9----9-----9----9-----9----9----||


  Cm7                N.C.
   ~~
                              |--3---|
   H            +E   E   S  S S  S   S
|-20-----------(20)\-------------------|
|--------------------------------------|
|--------------------------------------|
|------------------------8h10p8h10p==8h|
|--------------------------------------|
|--------------------------------------|
|
|                    PM------------|
|  E S S +E  E  +E   S S S  S S    S
|--------------------------------------|
|------4-(4)---------------------------|
|------3-(3)---------------------------|
|--------------------------------------|
|--3-3-------3--(3)-----------1----1---|
|--------------------1-1-3--3----------|


  Cm7                                         N.C.
                                              ~
   |--3---| |--3---|  |--3--| |-3--|  |--3--|
   S S    S S  S   S  S  S  S S  S S  S  S  S Q       +E
|------------------------------------------------------------|
|------------------------------------------------------------|
|------------------------------------------------------------|
|-10p8h==10p8h10p==8h10p=8h10p8h10p8h10p=8h10p8-------(8)\---|
|------------------------------------------------------------|
|------------------------------------------------------------|
|
|                                             PM-----------|
|  S   S    S    S   +E       E      +E       S S S S  S   S
|------------------------------------------------------------|
|----------------4---(4)-------------------------------------|
|----------------3---(3)-------------------------------------|
|------------------------------------------------------------|
|--3---3----3-----------------3------(3)---------------1---1-|
|---------------------------------------------1-1-3-3--------|


  Cm7                                      N.C.
  S      +S    S S +S   E       +S   +S  S  S S Q
|-----------------------------------------------------------|
|----------------------10b11r==(10)-(10)--------8b11========|
|----------------8-(8)-10b11r==(10)-(10)-8------------------|
|-8b8.5==(8)r-10---------------------------10-8-------------|
|-----------------------------------------------------------|
|-----------------------------------------------------------|
|
|                                           PM------------|
| S       S    S S +E        E       +E     S S S     S S S
|-----------------------------------------------------------|
|----------------4-(4)--------------------------------------|
|----------------3-(3)--------------------------------------|
|-----------------------------------------------------------|
|-3-------3----3-------------3-------(3)----------------1-1-|
|-------------------------------------------1-1-3-----3-----|


  Cm7                                Dm7                    Cm7                               N.C.
                                     ~~
  +E     S     +S  +S   S     +E     Q.       +E      a      +S   S S  S     +S  S  S S  S  S  S S S  S S S
|--------------------------------------------------|----------------8-----------------------------------------|
|-(8)r---8b11==(8)-(8)r-8b11==(8)r---8--------(8)\-|--------------8-------------------------------------------|
|--------------------------------------------------|-10b11==(10)r-----10b11r(10)-8----------------------------|
|--------------------------------------------------|-------------------------------10-8-10--8-----------------|
|--------------------------------------------------|------------------------------------------10-9-8----------|
|--------------------------------------------------|-------------------------------------------------11-8s6---|
|
|                              PM--|    PM|                                                    PM---------|
|  S   S S      S  +E          S   S E  S S Q                 E     S  S     +E     E   +E     S S S  S S S
|--------------------------------------------------|----------------------------------------------------------|
|---------------4--(4)---------------6------6------|-------------------4-----(4)------------------------------|
|---------------3--(3)---------------5------5------|-------------------3-----(3)------------------------------|
|------------------------------------0------0------|----------------------------------------------------------|
|--3---3-3---------------------3---3----3-3--------|----------3-----3---------------3---(3)-------------1-1---|
|--------------------------------------------------|-------------------------------------------1-1-3--3-------|


  Cm7                         N.C.
  S  S  S S  S  S  S  S  S  S  S  S S  S S  S
|---------------------------------------------|
|---------------------------------------------|
|---------------------------------------------|
|-----------------------------------8-10-8----|
|---------8-10--8-----------8-10-12--------12-|
|-8-11-12---------12-11-12--------------------|
|
|                              PM----------|
| S  S  S S +E     E    +E     S  S S  S S  S
|---------------------------------------------|
|---------4-(4)-------------------------------|
|---------3-(3)-------------------------------|
|---------------------------------------------|
|-3--3--3----------3----(3)--------------1--1-|
|------------------------------1--1-3--3------|


  Cm7                                          N.C.              Cm7                  Dm7
                                                                                       ~~~
  S     +S    S S     +S    S S     +S    S  S  S S  S  S S  S   S  S S  S  S  S  S S  Q.        +E
|--------------------------------------------------------------|-----------------------------------------||
|--------------------------------------------------------------|-----------------------------------------||
|--------------------------------------------------------------|--------------------8--------------------||
|-8b10==(8)r-10-8b10==(8)r-10-8b10==(8)r-10--8-----------------|------------8--9-10---10--------(10)\----||
|----------------------------------------------10-8-10---------|-8----8-10-------------------------------||
|------------------------------------------------------11-8-11-|---11------------------------------------||
|
|                                               PM----------|                     PM|     PM|
| S      S    S S     +E      E          +E     S S  S  S S  S   S  S S  S +E     S S  E  S S Q
|--------------------------------------------------------------|-----------------------------------------||
|---------------4-----(4)--------------------------------------|---------4-(4)---------6------6----------||
|---------------3-----(3)--------------------------------------|---------3-(3)---------5------5----------||
|--------------------------------------------------------------|-----------------------0------0----------||
|-3------3----3---------------3----------(3)--------------1--1-|-3--3-3-----------3-3-----3-3------------||
|-----------------------------------------------1-1--3--3------|-----------------------------------------||


 Bass Solo
  A5
  Gtrs I, II
  Q  +Q    E E E E   E E E E E E S S E
|------------------|-------------------|
|------------x---x-|---x---x---x---x-x-|
|-9--(9)\----x---x-|---x---x---x---x-x-|
|-7--(7)\--x-x-x-x-|-x-x-x-x-x-x-x-x-x-|
|------------------|-------------------|
|------------------|-------------------|


  E E E E E E S S E   E E E E E E S S E
|-------------------|--------------------|
|---x---x---x---x-x-|---x---x---x---x-x--|
|---x---x---x---x-x-|---x---x---x---x-x--|
|-x-x-x-x-x-x-x-x-x-|-x-x-x-x-x-x-x-x-x--|
|-------------------|--------------------|
|-------------------|--------------------|


  Q  +Q    E E S S E   E E E E E E S S E
|--------------------|-------------------|
|------------x---x-x-|---x---x---x---x-x-|
|-9--(9)\----x---x-x-|---x---x---x---x-x-|
|-7--(7)\--x-x-x-x-x-|-x-x-x-x-x-x-x-x-x-|
|--------------------|-------------------|
|--------------------|-------------------|


  E E E E E E S S E   E E E E E E Q
|-------------------|------------------||
|---x---x---x---x-x-|---x---x---x------||
|---x---x---x---x-x-|---x---x---x------||
|-x-x-x-x-x-x-x-x-x-|-x-x-x-x-x-x------||
|-------------------|-------------x\---||
|-------------------|-------------x\---||


    N.C.
    PM--|   PM--|   PM  PM  PM-------
    S S S S S S S S S S S S S S S S
||----------------------------------|
||o---------------------------------|
||----------------------------------|
||----------------------------------|
||o-------2-------5---3---2---------|
||--2-3-5---5-3-2---2---5---5-3-2-3-|


 -------------------------------------|   PM--|   PM  PM  PM----|
  S S S S +S  S S S S E S S E S   S S S S S S S S S S S S S S S S
|-------------------------------|----------------------------------|
|-------------------------------|----------------------------------|
|-------------------------------|----------------------------------|
|-------------------------------|-------2-------5---4---2----------|
|-------------------------------|----------------------------------|
|-0-0-0-0-(0)-0-0-0-0-0-0-0-0-0-|-2-3-5---5-3-2---2---5---5-3-2-3--|


  1.                                2.
  PM------------------------------------------------------------|
  S S S S +S  S S S S E S S E S     S S S S +S  S S S S E S S E S
|--------------------------------||-------------------------------||
|-------------------------------o||-------------------------------||
|--------------------------------||-------------------------------||
|--------------------------------||-------------------------------||
|-3-3-3-3-(3)-3-3-3-3-3-3-3-3-3-o||-0-0-0-0-(0)-0-0-0-0-0-0-0-0-0-||
|--------------------------------||-------------------------------||


  C5              E5
                             ~~
  S S S S S S S S S S S S  S E.
|-------------------------------|
|-------------------------------|
|----------------------------9--|
|-----2h5-----4-----5h9---------|
|-2h3-----3h7---5h7-----7h10----|
|-------------------------------|
|
| Gtr IV
| H               H
|-------------------------------|
|-------------------------------|
|-5-----------------------------|
|-5---------------2-------------|
|-3---------------2-------------|
|-----------------0-------------|


  C5                 E5              C5              E5
                                ~~                              ~~
  S S S  S S  S S  S  S S  S S  Q    S S S S S S S S S S S S  S E.
|----------------------------------|-------------------------------|
|------------------------------12--|-------------------------------|
|--------------------11------9-----|----------------------------9--|
|-----7h10------9h12----9h12-------|-----2h5-----4-----5h9---------|
|-7h9------9h12--------------------|-2h3-----3h7---5h7-----7h10----|
|----------------------------------|-------------------------------|
|
| H                   H              H               H
|----------------------------------|-------------------------------|
|----------------------------------|-------------------------------|
|-5------------------/9------------|-5-----------------------------|
|-5------------------/9------------|-5---------------2-------------|
|-3------------------/7------------|-3---------------2-------------|
|----------------------------------|-----------------0-------------|


  C5              B5      E5   C5              E5
  Gtr I
                          ~                                ~~~
  S S S S S S S S S S S S Q    S S S S S S S S S S S S  S  E.
|----------------------------|--------------------------------|
|----------------------------|--------------------------------|
|----------------------------|-----------------------------9--|
|-----2h5-----4-----0h4---2--|-----2h5-----4-----5h9----------|
|-2h3-----3h7---0h2-----2----|-2h3-----3h7---5h7-----7h10-----|
|----------------------------|--------------------------------|
|
| Gtr II
|                         ~                                ~~~
| S S S S S S S S S S S S Q    S S S S S S S S S S S S  S  E.
|----------------------------|--------------------------------|
|----------------------------|--------------------------------|
|----------------------------|----------------------------12--|
|-----2h5-----4-----0h4---2--|-----2h5-----4-----5h9----------|
|-2h3-----3h7---0h2-----2----|-2h3-----3h7---5h7-----7h10-----|
|----------------------------|--------------------------------|
|
| Gtr IV
| H               Q       Q    H               H
|----------------------------|--------------------------------|
|----------------------------|--------------------------------|
|-5---------------4----------|-5------------------------------|
|-5---------------4-------2--|-5---------------2--------------|
|-3---------------2-------2--|-3---------------2--------------|
|-------------------------0--|-----------------0--------------|


  C5                 E5
                                ~~
  S S S  S S  S S  S  S S  S S  Q
|----------------------------------|
|------------------------------12--|
|--------------------11------9-----|
|-----7h10------9h12----9h12-------|
|-7h9------9h12--------------------|
|----------------------------------|
|
|                               ~~
| S S S  S S  S S  S  S S  S S  Q
|------------------------------12--|
|----------------------------------|
|--------------------11------9-----|
|-----7h10------9h12----9h12-------|
|-7h9------9h12--------------------|
|----------------------------------|
|
| H                   H
|----------------------------------|
|----------------------------------|
|-5------------------/9------------|
|-5------------------/9------------|
|-3------------------/7------------|
|----------------------------------|


  C5              E5         A5                D5
 3/4
  Gtrs I, II
                   T     T                      T       T
  S S S S S S S S  S S S S   S S S S S  S S  S  S S  S  S
|--------------------------|------------------------------|
|--------------------------|------------------------------|
|--------------------------|-----5h9------7h11h14-7h11h12-|
|-----2h5-----4h7h10-4h7h9-|-5h7-----7h10-----------------|
|-2h3-----3h7--------------|------------------------------|
|--------------------------|------------------------------|
|
| Gtr IV
| H                Q         H                  Q
|--------------------------|------------------------------|
|--------------------------|------------------------------|
|-5------------------------|-2------------------7---------|
|-5----------------2-------|-2------------------7---------|
|-3----------------2-------|-0------------------5---------|
|------------------0-------|------------------------------|


  E5                      A5
                           T        T
   S  S  S  S  S  S  S  S  S  S  S  S
|---------------------------------------|
|---------------------------------------|
|-------12h16-------14h17h21-14h17h21---|
|-12h14-------14h17---------------------|
|---------------------------------------|
|---------------------------------------|
|
|  H                       Q
|---------------------------------------|
|---------------------------------------|
|--9-----------------------2------------|
|--9-----------------------2------------|
|--7-----------------------0------------|
|---------------------------------------|


  N.C.
                           T        T
   S  S  S  S  S  S  S  S  S  S  S  S
|-------15h19-------15h19h22-15h19h22-|
|-15h17-------17h19-------------------|
|-------------------------------------|
|-------------------------------------|
|-------------------------------------|
|-------------------------------------|
|
|  Q           Q           Q
|-------------------------------------|
|-------------------------------------|
|-------------------------------------|
|-------------------------------------|
|--2-----------3-----------5----------|
|-------------------------------------|


 4/4
   S  S  S  S  S  S  S  S  S  S  S  S  S  S  S  S
|-24-24-24-24-24-24-24-24-24-24-24-24-24-24-24-24-|
|-------------------------------------------------|
|-------------------------------------------------|
|-------------------------------------------------|
|-------------------------------------------------|
|-------------------------------------------------|
|
|  PM------------------------------------------|
|  S  S  S  S  S  S  S  S  S  S  S  S  S  S  S  S
|-------------------------------------------------|
|-------------------------------------------------|
|-------------------------------------------------|
|-------------------------------------------------|
|--7--7--7--7--7--7--7--7--7--7--7--7--7--7--7--7-|
|-------------------------------------------------|


  Gtr I
   S  S  S  S   S  S  S  S    S  S  S  S   S  S  S  S
|-22p19--------------16h19--\16p13--------------10h13/-|
|-------20--------17---------------14--------11--------|
|----------19-\16---------------------13-\10-----------|
|------------------------------------------------------|
|------------------------------------------------------|
|------------------------------------------------------|
|
| Gtr II
|  S  S  S  S   S  S  S  S    S  S  S  S   S  S  S  S
|-16p13--------------10h13/--22p19--------------16h19\-|
|-------14--------11---------------20--------17--------|
|----------13-\10---------------------19-\16-----------|
|------------------------------------------------------|
|------------------------------------------------------|
|------------------------------------------------------|
|
| Gtr IV
|  Q            Q             Q            Q
|------------------------------------------------------|
|------------------------------------------------------|
|------------------------------------------------------|
|--5---------------------------------------------------|
|---------------7-------------4------------------------|
|------------------------------------------6-----------|


   S  S  S  S  S  S   S  S  S  S  S  S   S S S S
|-16p13--------------------------10h13-\10p7-----||
|-------14--------------------11-------------8---||
|----------13--------------10------------------7-||
|-------------15--------12-----------------------||
|----------------16\-13--------------------------||
|------------------------------------------------||
|
|  S  S  S  S  S  S   S  S  S  S  S  S   S S S S
|-16p13--------------------------10h13-\10p7-----||
|-------14--------------------11-------------8---||
|----------13--------------10------------------7-||
|-------------15--------12-----------------------||
|----------------16\-13--------------------------||
|------------------------------------------------||
|
|  Q           Q            Q            Q
|------------------------------------------------||
|------------------------------------------------||
|------------------------------------------------||
|------------------------------------------------||
|---------------------------4--------------------||
|--3-----------6-------------------------6-------||


  G5
 2/2
  Gtrs I, II
   S S  S  S   S    S S  S S   S  S S  S S  S  S
|------------------------------------------------|
|------------------------------------------------|
|---------------------8-10-8---------------------|
|----9-12------9---12---------12-10-9----9-10-12-|
|-10------10--------------------------10---------|
|------------------------------------------------|
|
| Gtr III
|  ~~                      ~~~~~~~~~~~~~~~~~~~~~~~
|  Q          +E      E    H
|------------------------------------------------|
|------------------------------------------------|
|-12---------(12)\----7----7---------------------|
|--9----------(9)\----5----5---------------------|
|------------------------------------------------|
|------------------------------------------------|
|
| Gtr IV
|                     PM
|  Q           E      E    Q           Q
|------------------------------------------------|
|------------------------------------------------|
|------------------------------------------------|
|--5-----------------------5\--------------------|
|--5------------------5----5\--------------------|
|--3------------------3----3\--------------------|


                                    ~~~~~~
   S  S  S  S S  S S  S S   S  S S  Q
|-----------------------------------------------|
|-----------------------------------------------|
|------------------8-10-8-----------------------|
|-----9-12----9-12---------12-10-9--------------|
|-10-------10----------------------10-----------|
|-----------------------------------------------|
|
|~~~~~
| +Q.              S  S E.       S +S    +S  E
|-----------------------------------------------|
|-----------------------------------------------|
|-(7)--------------5--7-8--------7-(7)b8r(7)-5--|
|-(5)--------------3--5-6--------5-(5)b6r(5)-3--|
|-----------------------------------------------|
|-----------------------------------------------|
|
|                  PM
|  Q          E    E    Q           Q
|-----------------------------------------------|
|-----------------------------------------------|
|-----------------------------------------------|
|--5--------------------5\----------------------|
|--5---------------5----5\----------------------|
|--3---------------3----3\----------------------|


   S  S  S  S S  S S  S S   S  S S  S S  S  S
|---------------------------------------------|
|---------------------------------------------|
|------------------8-10-8---------------------|
|-----9-12----9-12---------12-10-9----9-10-12-|
|-10-------10----------------------10---------|
|---------------------------------------------|
|
|  ~~~                  ~~
|  Q.              E    Q.               E
|---------------------------------------------|
|---------------------------------------------|
|--7---------------8----7---------------\5----|
|--5---------------6----5----------------6----|
|---------------------------------------------|
|---------------------------------------------|
|
|                  PM
|  Q          E    E    Q           Q
|---------------------------------------------|
|---------------------------------------------|
|---------------------------------------------|
|--5--------------------5\--------------------|
|--5---------------5----5\--------------------|
|--3---------------3----3\--------------------|


                                      ~~
   S   S  S   S S  S S  S S   S  S S  Q
|----------------------------------------||
|----------------------------------------||
|--------------------8-12-8--------------||
|------9-12-----9-12---------12-10-9-----||
|-10---------10----------------------10--||
|----------------------------------------||
|
|      ~~~~~~             ~~
|  T T S +Q          E    H
|----------------------------------------||
|----------------------------------------||
|--4h5p4-(4)-----------------------------||
|--5h6p5-(5)---------6----5--------------||
|--------------------6----5--------------||
|----------------------------------------||
|
|                    PM
|  Q            E    E    Q           Q
|----------------------------------------||
|----------------------------------------||
|----------------------------------------||
|--5----------------------5\-------------||
|--5-----------------5----5\-------------||
|--3-----------------3----3\-------------||


  A#5
    S  S  S  S   S    S  S  S  S   S  S  S  S  S  S  S
|------------------------------------------------------|
|------------------------------------------------------|
|-----------------------11-13-11-----------------------|
|-----12-15-----12---15-----------15-13-12----12-13-15-|
|--13-------13-----------------------------13----------|
|------------------------------------------------------|
|
|   ~~~                        ~~~~~~~~~~~~~~~~~~~~~~~~~
|   Q           +E       E     H
|------------------------------------------------------|
|------------------------------------------------------|
|-/15----------(15)\----10----10-----------------------|
|-/12----------(12)\-----8-----8-----------------------|
|------------------------------------------------------|
|------------------------------------------------------|
|
|                        PM
|   Q            E       E     Q            Q
|------------------------------------------------------|
|------------------------------------------------------|
|------------------------------------------------------|
|---8--------------------------8\----------------------|
|---8--------------------8-----8\----------------------|
|---6--------------------6-----6\----------------------|


                            B5           G#5
                                           ~~~~~~~~
    S   S  S  S  S  S  S  S  S   S  S  S   Q
|--------------------------------------------------------|
|--------------------------------------------------------|
|---------------------11-13-11---------------------------|
|------12-15----12-15-----------15-13-12-----------------|
|--13--------13---------------------------13-------------|
|--------------------------------------------------------|
|
|~~~~~~
|  +Q.                 S  S  E.        S  +S      +S  E
|--------------------------------------------------------|
|--------------------------------------------------------|
|-(10)-----------------8-10-11--------10-(10)b11r(10)-8--|
|--(8)-----------------6--8--9---------8--(8)b9r==(8)-6--|
|--------------------------------------------------------|
|--------------------------------------------------------|
|
|                      PM
|   Q            E     E     Q             Q
|--------------------------------------------------------|
|--------------------------------------------------------|
|--------------------------------------------------------|
|---8------------------------9\------------6-------------|
|---8------------------8-----9\------------6-------------|
|---6------------------6-----7\------------4-------------|


  A#5
   S   S  S  S  S  S  S  S  S   S  S  S  S  S  S  S
|---------------------------------------------------|
|---------------------------------------------------|
|--------------------11-13-11-----------------------|
|-----12-15----12-15-----------15-13-12----12-13-15-|
|-13--------13--------------------------13----------|
|---------------------------------------------------|
|
|  ~~~                      ~~~
|  Q.                 E     Q.                 E
|---------------------------------------------------|
|---------------------------------------------------|
|-10-----------------11----10-----------------\8----|
|--8------------------9-----8------------------9----|
|---------------------------------------------------|
|---------------------------------------------------|
|
|                     PM
|  Q            E     E     Q            Q
|---------------------------------------------------|
|---------------------------------------------------|
|---------------------------------------------------|
|--8------------------------8\----------------------|
|--8------------------8-----8\----------------------|
|--6------------------6-----6\----------------------|


                             B5           G#5
                                           ~~
   S    S  S   S  S  S  S  S  S   S  S  S  Q
|----------------------------------------------||
|----------------------------------------------||
|----------------------11-15-11----------------||
|------12-15-----12-15-----------15-13-12------||
|-13----------13--------------------------13---||
|----------------------------------------------||
|
|       ~~~~~~                ~~~
|  T T  S +Q            E     H
|----------------------------------------------||
|----------------------------------------------||
|--7h8p=7-(7)----------------------------------||
|--8h9p=8-(8)-----------9-----8----------------||
|-----------------------9-----8----------------||
|----------------------------------------------||
|
|                       PM
|  Q              E     E     Q            Q
|----------------------------------------------||
|----------------------------------------------||
|----------------------------------------------||
|--8--------------------------9\-----------6---||
|--8--------------------8-----9\-----------6---||
|--6--------------------6-----7\-----------4---||


  N.C.
   S S  S  S   S    S S  S S  S  S S  S S  S  S
|-----------------------------------------------|
|-----------------------------------------------|
|---------------------8-10-8--------------------|
|----9-12------9---12--------12-10-9----9-10-12-|
|-10------10-------------------------10---------|
|-----------------------------------------------|
|
|  ~~                      ~~~~~~~~~~~~~~~~~~~~~~
|  Q          +E      E    H
|-----------------------------------------------|
|-12---------(12)\----8----8--------------------|
|-12---------(12)\----7----7--------------------|
|-----------------------------------------------|
|-----------------------------------------------|
|-----------------------------------------------|


                                    ~~~~~~
   S  S  S  S S  S S  S S   S  S S  Q
|----------------------------------------------|
|----------------------------------------------|
|------------------8-10-8----------------------|
|-----9-12----9-12---------12-10-9-------------|
|-10-------10----------------------10----------|
|----------------------------------------------|
|
|~~~~~
| +Q.              S  S E.       S +S    +S  E
|----------------------------------------------|
|-(8)--------------6--8-9--------8-(8)b9r(8)-6-|
|-(7)--------------5--7-8--------7-(7)b8r(7)-5-|
|----------------------------------------------|
|----------------------------------------------|
|----------------------------------------------|


   S  S  S  S S  S S  S S   S  S S  S S  S  S
|---------------------------------------------|
|---------------------------------------------|
|------------------8-10-8---------------------|
|-----9-12----9-12---------12-10-9----9-10-12-|
|-10-------10----------------------10---------|
|---------------------------------------------|
|
|  ~~~                  ~~
|  Q.              E    Q.               E
|---------------------------------------------|
|--8---------------9----8---------------\4----|
|--7---------------8----7---------------\5----|
|---------------------------------------------|
|---------------------------------------------|
|---------------------------------------------|


                                           ~~
                           |-3--|  |-3--|
   S   S  S   S S  S S  S  S  S S  S  S S  Q
|---------------------------------------------||
|---------------------------------------------||
|--------------------8-10-12p10p8-------------||
|------9-12-----9-12--------------12p10p9-----||
|-10---------10---------------------------10--||
|---------------------------------------------||
|
|      ~~~~~~              ~~~
|  T T S +Q          E     H
|---------------------------------------------||
|--3h4p3-(3)----------------------------------||
|--4h5p4-(4)---------5-----4------------------||
|--------------------6-----5------------------||
|---------------------------------------------||
|---------------------------------------------||


    S  S  S  S   S    S  S  S  S  S  S  S  S  S  S  S
|-----------------------------------------------------|
|-----------------------------------------------------|
|-----------------------11-13-11----------------------|
|-----12-15-----12---15----------15-13-12----12-13-15-|
|--13-------13----------------------------13----------|
|-----------------------------------------------------|
|
|   ~~~                        ~~~~~~~~~~~~~~~~~~~~~~~~
|   Q           +E       E     H
|-----------------------------------------------------|
|-/15----------(15)\----11----11----------------------|
|-/15----------(15)\----10----10----------------------|
|-----------------------------------------------------|
|-----------------------------------------------------|
|-----------------------------------------------------|


                                           ~~~~~~~~
    S   S  S  S  S  S  S  S  S   S  S  S   Q
|--------------------------------------------------------|
|--------------------------------------------------------|
|---------------------11-13-11---------------------------|
|------12-15----12-15-----------15-13-12-----------------|
|--13--------13---------------------------13-------------|
|--------------------------------------------------------|
|
|~~~~~~
|  +Q.                 S  S  E.        S  +S      +S  E
|--------------------------------------------------------|
|-(11)-----------------9-11-12--------11-(11)b12r(11)-9--|
|-(10)-----------------8-10-11--------10-(10)b11r(10)-8--|
|--------------------------------------------------------|
|--------------------------------------------------------|
|--------------------------------------------------------|


   S   S  S  S  S  S  S  S  S   S  S  S  S  S   S  S
|----------------------------------------------------|
|----------------------------------------------------|
|--------------------11-13-11------------------------|
|-----12-15----12-15-----------15-13-12----12--13-15-|
|-13--------13--------------------------13-----------|
|----------------------------------------------------|
|
|  ~~~                      ~~~
|  Q.                 E     Q.                  E
|----------------------------------------------------|
|-11-----------------12----11-----------------/16----|
|-10-----------------11----10-----------------/16----|
|----------------------------------------------------|
|----------------------------------------------------|
|----------------------------------------------------|


   S   S  S  S  S  S   S  S  S   S  S  S  S  S   S    S
|-------------------------------------------------------||
|-------------------------------------------------------||
|---------------------11-15-13--11-------------------11-||
|-----12-15----12-15---------------15-13-12-13--15------||
|-13--------13------------------------------------------||
|-------------------------------------------------------||
|
|  ~~~                       ~~~
|  Q.                  E     Q.                 +E
|--------------------/19----18-----------------(18)\----||
|-15-----------------/19----18-----------------(18)\----||
|-15----------------------------------------------------||
|-------------------------------------------------------||
|-------------------------------------------------------||
|-------------------------------------------------------||


  N.C.
 4/4
  Gtrs I, II
   S  S  S  S  S  S  S  S  S  S  S  S  S  S  S  S
|-------------------------------------------------|
|-------------------------14-15-14-------18-16-15-|
|-15-13-11-16-15-13-15-16----------16-15----------|
|-------------------------------------------------|
|-------------------------------------------------|
|-------------------------------------------------|
|
| Gtr IV
|                                      PM----------
|  S  S  S  S  S  S  S  S  S  S  S  S  e     E
|-------------------------------------------------|
|-------------------------------------------------|
|-------------------------------------------------|
|--6h=8--8--8--8--8--6h=8--8--8--8--8-------------|
|-------------------------------------------------|
|--------------------------------------6----------|


   S  S  S  S  S  S  S  S  S  S   S  S S  S  S  S
|-18p14-------19p16--------------------------------|
|-------16----------17-----------------------------|
|----------15----------16----------------16p13-----|
|-------------------------18-------------------14--|
|----------------------------19-\14----------------|
|-----------------------------------16-0-----------|
|
|-------------------------------------------|
|  S  S  S  S  S  S  S  S  S  S   S  S e     E
|--------------------------------------------------|
|--------------------------------------------------|
|--------------------------------------------------|
|--------------------------------------------------|
|--6--6--6--6--7--7--7--7--------------------------|
|--------------------------0--0---0--0-0-----------|


  A#5                            F#5      A5
  Gtr I
   S  S  S  S  S  S  S  S  S   S  S S  S   S  S  S
|-10p=6-----------------6-10p==6--9p6-----12p=9----|
|--------6-----------6-----------------7--------10-|
|-----------7-----7--------------------------------|
|--------------8-----------------------------------|
|--------------------------------------------------|
|--------------------------------------------------|
|
| Gtr II
|  S  S  S  S  S  S  S  S  S   S  S S  S   S  S  S
|-13p10----------------10-13p=10-14p9-----17p12----|
|-------11----------11----------------11--------14-|
|----------10----10--------------------------------|
|-------------12-----------------------------------|
|--------------------------------------------------|
|--------------------------------------------------|
|
| Gtr IV
|  H                      +E      E   +S   E.
|--------------------------------------------------|
|--------------------------------------------------|
|--------------------------------------------------|
|--8----------------------(8)-----4---(4)-/7-------|
|--8----------------------(8)-----4---(4)-/7-------|
|--6----------------------(6)-----2---(2)-/5-------|


                                                         A Tempo Q=68
  C#5                            A5          G5          D5          A/C#  B5          A5
                                                        6/8
   S  S  S  S  S  S  S  S  S   S   S  S   S   S  S  S     S  S  S  S  S  S  S  S  S  S S  S
|-13p=9-----------------9-13p==9--12p=9------10p=7----||-14-------14-12----10-------10-9-------|
|--------9-----------9-------------------10---------8-||-------15-------14-------12------10----|
|----------10----10-----------------------------------||----14----------------11---------------|
|-------------11--------------------------------------||---------------------------------------|
|-----------------------------------------------------||---------------------------------------|
|-----------------------------------------------------||---------------------------------------|
|
|  S  S  S  S  S  S  S  S  S   S   S  S   S   S  S  S     S  S  S  S  S  S  S  S  S  S S  S
|-16p13----------------13-16p=13--17p12------15p10----||-14-------14-12----10-------10-9-------|
|-------14----------14-------------------14--------12-||-------15-------14-------12------10----|
|----------13----13-----------------------------------||----14----------------11---------------|
|-------------15--------------------------------------||---------------------------------------|
|-----------------------------------------------------||---------------------------------------|
|-----------------------------------------------------||---------------------------------------|
|
|  H                      +E       E     +S   E.          Q           E     Q          E
|-----------------------------------------------------||---------------------------------------|
|-----------------------------------------------------||---------------------------------------|
|--6----------------------(6)----/14----(14)-12-------||--7-----------------4----------2-------|
|--6----------------------(6)----/14----(14)-12-------||--7-----------7-----4----------2-------|
|--4----------------------(4)----/12----(12)-10-------||--5-----------4-----2----------0-------|
|-----------------------------------------------------||---------------------------------------|


  G5      (F#5)E5      D5    A5
  S S S S  S S S S S S S S   S  S S S S S S  S S S S S
|-7-----7------------------|---------------------------|
|-----8---10-7-8-----8-7---|---------------------------|
|---7--------------9-----7-|-9----7-9-7---9----7-9-7---|
|----------------9---------|----7-------7----7-------7-|
|--------------------------|---------------------------|
|--------------------------|---------------------------|
|
| S S S S  S S S S S S S S   S  S S S S S S  S S S S S
|-7-----7------------------|---------------------------|
|-----8---10-7-8-----8-7---|---------------------------|
|---7--------------9-----7-|-9----7-9-7---9----7-9-7---|
|----------------9---------|----7-------7----7-------7-|
|--------------------------|---------------------------|
|--------------------------|---------------------------|
|
| Q        E   Q       E     Q.           Q.
|-3------------------------|---------------------------|
|-3------------5-------3---|---------------------------|
|-0------------4-------2---|-2------------2------------|
|-0------------2-------0---|-2------------2------------|
|--------------2-------0---|-0------------0------------|
|-3--------2---0-----------|---------------------------|


                       D.S. al Coda
   S   S S  S S S   S   S S   S  S S
|------------------------------------||
|------------------------------------||
|--9-----6--9-6-----9-----6---7--6---||
|------7--------7-------7----------7-||
|------------------------------------||
|------------------------------------||
|
|  S   S S  S S S   S   S S   S  S S
|------------------------------------||
|-----10---10----------10----10------||
|--9-----9----9-----9-----9------9---||
|---------------7------------------7-||
|------------------------------------||
|------------------------------------||
|
|  Q.              +E.        E.
|------------------------------------||
|-10--------------(10)---------------||
|--9---------------(9)---------------||
|--7---------------(7)---------------||
|--0---------------(0)---------------||
|---------------------------/17\-----||


  &
  A5                     G5               A5
  Gtr I                  Gtr III
   ~~~      ~~~                ~~~                     ~~~~
   Q   S S  Q    +E      Q.    E. E T T   S  a    +S  +Q    a E  E  S S
|---------------------||----------------|-------------------------------|
|---------------------||------/8--7h8p7-|-5------------------------10---|
|---------------------||----------------|----7b9==(7)-(7)r--9s6--7------|
|-/7---7-9-11---(11)\-||----------------|-----------------------------7-|
|---------------------||----------------|-------------------------------|
|---------------------||----------------|-------------------------------|
|
| Gtr II                 Gtrs I, II
|  ~~~      ~~~
|  Q   S S  Q    +E      Q.    Q.         Q.                  Q.
|---------------------||-3-----3--------|-------------------------------|
|---------------------||-3-----3--------|-------------------------------|
|------6-7--9----(9)\-||-0-----0--------|-2-------------------2---------|
|-/7------------------||-0-----0--------|-2-------------------2---------|
|---------------------||----------------|-0-------------------0---------|
|---------------------||-3-----3--------|-------------------------------|
|
| Gtr IV
|  Q.       Q.           W                W
|---------------------||----------------|-------------------------------|
|---------------------||----------------|-------------------------------|
|--2--------2---------||----------------|-------------------------------|
|--2--------2---------||----------------|-------------------------------|
|--0--------0---------||----------------|-------------------------------|
|---------------------||----------------|-------------------------------|


         B5
           ~~~~~
   a      +Q.     a      +S   +S  S a     +S  +S  S
|-----------------------------------------------------|
|-10b12==(10)r---10b12==(10)r(10)-7-------------------|
|-----------------------------------9b10==(9)r(9)-7---|
|-----------------------------------------------------|
|-----------------------------------------------------|
|-----------------------------------------------------|
|
|          Q.             Q.
|-----------------------------------------------------|
|-----------------------------------------------------|
|----------4--------------4---------------------------|
|----------4--------------4---------------------------|
|----------2--------------2---------------------------|
|-----------------------------------------------------|
|
|          W
|-----------------------------------------------------|
|-----------------------------------------------------|
|-----------------------------------------------------|
|-----------------------------------------------------|
|-----------------------------------------------------|
|-----------------------------------------------------|


  E5                          G5
           ~~~~     ~~~~~~~~~~~~~~~
  S  a    +E.  S S  Q.          E.  E  S  a      +E.   E  T  T
|---------------------------|------------14b15==(14)r-14-15-14-|
|-5-------------------------|------15--------------------------|
|----7b9==(7)r-7-4--4-------|-/12-----12-----------------------|
|---------------------------|----------------------------------|
|---------------------------|----------------------------------|
|---------------------------|----------------------------------|
|
| Q.                Q   S S     Q.                Q.
|---------------------------|---3-----------------3------------|
|-------------------5-------|---3-----------------3------------|
|-------------------4-------|---0-----------------0------------|
|-2-----------------2-------|---0-----------------0------------|
|-2-----------------2-------|----------------------------------|
|-0----------------(0)--0-2-|---3-----------------3------------|


  A5                                     B5
          ~~~                              ~~~~~
   s   s  E.  S  a  E   E  S  S    a      +Q.     a      +S   +S   S  a      +S   +S   S
|-12--14-12---------------17----|-17b19==(17)r---17b19==(17)r(17)-14---------------------|
|------------15-17s14--15-------|------------------------------------17b18==(17)r(17)-15-|
|----------------------------14-|--------------------------------------------------------|
|-------------------------------|--------------------------------------------------------|
|-------------------------------|--------------------------------------------------------|
|-------------------------------|--------------------------------------------------------|
|
|  Q.               Q.                     Q.             Q.
|-------------------------------|--------------------------------------------------------|
|-------------------------------|--------------------------------------------------------|
|--2----------------2-----------|----------4--------------4------------------------------|
|--2----------------2-----------|----------4--------------4------------------------------|
|--0----------------0-----------|----------2--------------2------------------------------|
|-------------------------------|--------------------------------------------------------|


  E5
                                              ~~~
   T  T  T  T  T  T  T  T  T  T  T  T  T   T  E.  T  T  T  T
|-19p16------------------------------------------------------|
|-------17-------17------------------------------------------|
|----------16s14----14s13------------------------------------|
|-------------------------14---------------------------------|
|----------------------------14s12----12s=11-----------10-12-|
|----------------------------------12--------12--10s12-------|
|
|  Q.                                  Q          S     S
|------------------------------------------------------------|
|--------------------------------------5---------------------|
|--------------------------------------4---------------------|
|--2-----------------------------------2---------------------|
|--2-----------------------------------2---------------------|
|--0----------------------------------(0)---------0-----2----|


         G5
           ~~~~~
                               |--3---|  |--3--|
   a      +E.   S  T  T  T  T  S   S  S  S  S  S  a      +S   +T   T
|------------------------------------14-15----14----------------------|
|-----------------------------15--17-------17----17b19==(17)r(17)p15--|
|-----------------------14-16-----------------------------------------|
|--------------12-14s16-----------------------------------------------|
|-12b14==(12)r--------------------------------------------------------|
|---------------------------------------------------------------------|
|
|          Q.                  Q.
|----------3-------------------3--------------------------------------|
|----------3-------------------3--------------------------------------|
|----------0-------------------0--------------------------------------|
|----------0-------------------0--------------------------------------|
|---------------------------------------------------------------------|
|----------3-------------------3--------------------------------------|


  Asus4           A
   ~~~
          |--3--|  |--3---|
   E. S   S  S  S  S   S  S  a      +E    a      +E
|---------------------19-22-22b24==(22)r-22b24==(22)-||
|-17-----------19-22---------------------------------||
|-----7/-19-21---------------------------------------||
|----------------------------------------------------||
|----------------------------------------------------||
|----------------------------------------------------||
|
|  Q.              Q.
|----------------------------------------------------||
|--3---------------2---------------------------------||
|--2---------------2---------------------------------||
|--2---------------2---------------------------------||
|--0---------------0---------------------------------||
|----------------------------------------------------||


 Outro
     Dsus2               N.C.(D)                           Csus2
 4/4
                                                             >
       ~~~~~~~~~~~~~~~~~~~~~~~~~~~~~~~~~~~~~~~~~~~~~~~~~~~~~~~~~
   a  +W                                   +H               +H
|-22r(22)-------------------------------|-(22)-------------(22)----------|
|---------------------------------------|--------------------------------|
|---------------------------------------|--------------------------------|
|---------------------------------------|--------------------------------|
|---------------------------------------|--------------------------------|
|---------------------------------------|--------------------------------|
|
|                               ~~          ~~~~
|      Q   E S S +S   S   S  S  E  S  S     E. S  S  S  E    E. S +S  E.
|----------0----------------------------|-----------------------3-(3)----|
|-----(3)----3--------------------------|-----------------------------3--|
|------2-------2-(2)-----12-14-15-14-12-|--11----11h12-11\---5-----------|
|------0--------------0---0--0--0--0--0-|---0--0--0-----0----5-----------|
|------0-------------(0)----------------|--------------------3-----------|
|---------------------------------------|-------------------(3)----------|


  Dsus2              (D)                              C5Bb5G5F5
  Gtrs I, II
                            ~~         ~~~
   Q   E S S +S   S   S  S  E  S  S    E. S  S  S  E  S E. S E.
|------0----------------------------|---------------------------|
|-(3)----3--------------------------|---------------------------|
|--2-------2-(2)-----12-14-15-14-12-|-11----11h12-11\-5-3-------|
|--0--------------0---0--0--0--0--0-|--0--0--0-----0--5-3--5-3--|
|--0-------------(0)----------------|-----------------3-1--5-3--|
|-----------------------------------|----------------------3-1--|
|
| Gtr III
|  W                                   W
|-----------------------------------|---------------------------|
|-----------------------------------|---------------------------|
|-----------------------------------|---------------------------|
|-----------------------------------|---------------------------|
|-----------------------------------|---------------------------|
|-----------------------------------|---------------------------|


  Dsus2                (D)
                              ~~
    Q   E S S  +S   S   S  S  E  S  S
|-------0------------------------------|
|--(3)----3----------------------------|
|---2-------2--(2)-----12-14-15-14-12--|
|---0---------------0---0--0--0--0--0--|
|---0--------------(0)-----------------|
|--------------------------------------|
|
|   ~~~~~~~~~~~~~~~           ~~
|   H          +E       S  S  E  S  S
|--------------------------------------|
|--------------------------------------|
|----------------------12-14-15-14-12--|
|-/12---------(12)---------------------|
|--------------------------------------|
|--------------------------------------|


                  Csus2           Dsus2                (D)
   ~~~                                                        ~~
   E. S  S  S  E    E. S +S  E.     Q   E S S  +S   S   S  S  E  S  S
|----------------------3-(3)----|-------0-----------------------------|
|----------------------------3--|--(3)----3---------------------------|
|-11----11h12-11\---5-----------|---2-------2--(2)-----12-14-15-14-12-|
|--0--0--0-----0----5-----------|---0---------------0---0--0--0--0--0-|
|-------------------3-----------|---0--------------(0)----------------|
|------------------(3)----------|-------------------------------------|
|
|  ~~~              ~~~~~~~~~~~~~~~~~~~~~~~~~~~~~~~           ~~
|  Q     S  S  E    H               H          +E       S  S  E  S  S
|-------------------------------|-------------------------------------|
|-------------------------------|-------------------------------------|
|-11----11h12-11----------------|----------------------12-14-15-14-12-|
|-----------------\10-----------|-/12---------(12)--------------------|
|-------------------------------|-------------------------------------|
|-------------------------------|-------------------------------------|


                  C5 Bb5 G5 F5
   ~~~
   E. S  S  S  E   S  E.  S  E.
|--------------------------------|
|--------------------------------|
|-11----11h12-11\--5--3----------|
|--0--0--0-----0---5--3---5--3---|
|------------------3--1---5--3---|
|-------------------------3--1---|
|
|  ~~~                ~~~    ~~~
|  Q     S  S  E   S  E.  S  E.
|--------------------------------|
|--------------------------------|
|-11----11h12-11--12-10----------|
|------------------------12-10---|
|--------------------------------|
|--------------------------------|


  Dsus2                (D)                              Csus2
                              ~~         ~~~
    Q   E S S  +S   S   S  S  E  S  S    E. S  S  S  E    E. S +S  E.
|-------0-----------------------------|----------------------3-(3)----|
|--(3)----3---------------------------|----------------------------3--|
|---2-------2--(2)-----12-14-15-14-12-|-11----11h12-11\---5-----------|
|---0---------------0---0--0--0--0--0-|--0--0--0-----0----5-----------|
|---0--------------(0)----------------|-------------------3-----------|
|-------------------------------------|------------------(3)----------|
|
| Gtr III
|   ~~~~~~~~~~~~~~~           ~~         ~~~              ~~~~~~~~~~~~~
|   H          +E       S  S  E  S  S    Q     S  S  E    H
|----------------------15-17-18-17-15-|-14----14h15-14----------------|
|-/15---------(15)--------------------|-----------------\13-----------|
|----------------------12-14-15-14-12-|-11----11h12-11----------------|
|-/12---------(12)--------------------|-----------------\10-----------|
|-------------------------------------|-------------------------------|
|-------------------------------------|-------------------------------|


  Dsus2                (D)
                              ~~
    Q   E S S  +S   S   S  S  E  S  S
|-------0------------------------------|
|--(3)----3----------------------------|
|---2-------2--(2)-----12-14-15-14-12--|
|---0---------------0---0--0--0--0--0--|
|---0--------------(0)-----------------|
|--------------------------------------|
|
|~~~~~~~~~~~~~~~~~~           ~~
|   H          +E       S  S  E  S  S
|----------------------15-17-18-17-15--|
|-/15---------(15)---------------------|
|----------------------12-14-15-14-12--|
|-/12---------(12)---------------------|
|--------------------------------------|
|--------------------------------------|


                  C5 Bb5 G5 F5    Dsus2                (D)
   ~~~                                                        ~~
   E. S  S  S  E   S  E.  S  E.     Q   E S S  +S   S   S  S  E  S  S
|-------------------------------|-------0-----------------------------|
|-------------------------------|--(3)----3---------------------------|
|-11----11h12-11\--5--3---------|---2-------2--(2)-----12-14-15-14-12-|
|--0--0--0-----0---5--3---5--3--|---0---------------0---0--0--0--0--0-|
|------------------3--1---5--3--|---0--------------(0)----------------|
|-------------------------3--1--|-------------------------------------|
|
|  ~~~                ~~~    ~~~~~~~~~~~~~~~~~~~~~~           ~~
|  Q     S  S  E   S  E.  S  E.     H          +E       S  S  E  S  S
|-14----14h15-14----------------|----------------------15-17-18-17-15-|
|-----------------13-11---------|-/15---------(15)--------------------|
|-11----11h12-11--12-10--12-10--|----------------------12-14-15-14-12-|
|------------------------12-10--|-/12---------(12)--------------------|
|-------------------------------|-------------------------------------|
|-------------------------------|-------------------------------------|
|
| Gtr IV
|                                   ~~~~~~~~~~~~~~~           ~~
|  W                                H          +E       S  S  E  S  S
|-------------------------------|----------------------18-20-22-20-18-|
|-------------------------------|--19---------(19)--------------------|
|-------------------------------|----------------------15-17-19-17-15-|
|-------------------------------|--16---------(16)--------------------|
|-------------------------------|-------------------------------------|
|-------------------------------|-------------------------------------|


                  Csus2
   ~~~
   E. S  S  S  E    E. S +S  E.
|----------------------3-(3)-----|
|----------------------------3---|
|-11----11h12-11\---5------------|
|--0--0--0-----0----5------------|
|-------------------3------------|
|------------------(3)-----------|
|
|  ~~~              ~~~~
|  Q     S  S  E    H
|-14----14h15-14-----------------|
|-----------------\13------------|
|-11----11h12-11-----------------|
|-----------------\10------------|
|--------------------------------|
|--------------------------------|
|
|  ~~~              ~~~~
|  Q     S  S  E    H
|-17----17h18-17-----------------|
|------------------20------------|
|-14----14h15-14-----------------|
|------------------17------------|
|--------------------------------|
|--------------------------------|


                                              H.=H                      E=68
  Dsus2                (D)                              C5 Bb5 G5 F5    D5
                              ~~         ~~~
    Q   E S S  +S   S   S  S  E  S  S    E. S  S  S  E   S  E.  S  E.   W
|-------0-----------------------------|-------------------------------|------*|
|--(3)----3---------------------------|-------------------------------|-3----*|
|---2-------2--(2)-----12-14-15-14-12-|-11----11h12-11\--5--3---------|-2----*|
|---0---------------0---0--0--0--0--0-|--0--0--0-----0---5--3---5--3--|-0----*|
|---0--------------(0)----------------|------------------3--1---5--3--|-0----*|
|-------------------------------------|-------------------------3--1--|------*|
|
|   ~~~~~~~~~~~~~~~           ~~         ~~~                ~~~    ~~~
|   H          +E       S  S  E  S  S    Q     S  S  E   S  E.  S  E.   W
|----------------------15-17-18-17-15-|-14----14h15-14----------------|------*|
|-/15---------(15)--------------------|-----------------13-11---------|-3----*|
|----------------------12-14-15-14-12-|-11----11h12-11--12-10--12-10--|-2----*|
|-/12---------(12)--------------------|------------------------12-10--|-0----*|
|-------------------------------------|-------------------------------|-0----*|
|-------------------------------------|-------------------------------|------*|
|
|   ~~~~~~~~~~~~~~~           ~~         ~~~
|   H          +E       S  S  E  S  S    Q     S  S  E   H              W
|----------------------18-20-22-20-18-|-17----17h18-17----------------|------*|
|--19---------(19)--------------------|-------------------------------|------*|
|----------------------15-17-19-17-15-|-14----14h15-14----------------|------*|
|--16---------(16)--------------------|-------------------------------|------*|
|-------------------------------------|-------------------------------|------*|
|-------------------------------------|-------------------------------|------*|




--------------------------------------------------------------------------------


Duration Legend
---------------
W - whole; H - half; Q - quarter; E - 8th; S - 16th; T - 32nd; X - 64th; a - acciaccatura
+ - note tied to previous; . - note dotted; .. - note double dotted
Uncapitalized letters represent notes that are staccato (1/2 duration)
Irregular groupings are notated above the duration line
Duration letters will always appear directly above the note/fret number it represents the
duration for.  Duration letters with no fret number below them represent rests.  Multi-
bar rests are notated in the form Wxn, where n is the number of bars to rest for.  Low
melody durations appear below the staff

Tablature Legend
----------------
 h   - hammer-on
 p   - pull-off
 b   - bend
 pb  - pre-bend
 r   - bend release (if no number after the r, then release immediately)
 /\  - slide into or out of (from/to "nowhere")
 s   - legato slide
 S   - shift slide
 - natural harmonic
[n]  - artificial harmonic
n(n) - tapped harmonic
 ~   - vibrato
 tr  - trill
 T   - tap
 TP  - trem. picking
 PM  - palm muting
\n/  - tremolo bar dip; n = amount to dip
 \n  - tremolo bar down
 n/  - tremolo bar up
/n\  - tremolo bar inverted dip
 =   - hold bend; also acts as connecting device for hammers/pulls
 <> - volume swell (louder/softer)
 x   - on rhythm slash represents muted slash
 o   - on rhythm slash represents single note slash

Misc Legend
-----------
 |  - bar
||  - double bar
||o - repeat start
o|| - repeat end
*|  - double bar (ending)
 :  - bar (freetime)
 $  - Segno
 &  - Coda
Tempo markers -  = BPM(8/16=s8/s16), where s8 = swing 8ths, s16 = swing 16ths


Tap to rate this tab
# A B C D E F G H I J K L M N O P Q R S T U V W X Y Z