Guitaretab - guitar tabs
Song name
# A B C D E F G H I J K L M N O P Q R S T U V W X Y Z

John Petrucci - Glasgow Kiss tab

Song: Glasgow kiss
Album: Suspended Animation

The guitar solo at the end will comes soon. 

Main Riff 1

E||---------------------------|-------------------------|---------------------------|
B||--------7-----10-7-9-7-----|-------7-----------------|-------7-----10-7-9-7------|
G||------9---9------------9---|-----9---9---7-6-------6-|---------9------------9----|
D||----9-------9------------9-|---9-------9-----9-7-9---|-9---9-----9------------9--|
A||--7------------------------|-7-----------------------|---7-----------------------|
E||---------------------------|-------------------------|---------------------------|
 ||
 ||
E||---------------------------|-------------------------|---------------------------|
B||---------------------------|-------------------------|---------------------------|
G||-9\------------------------|-------------------------|-9\------------------------|
D||-9\------------------------|-------------------------|-9\------------------------|
A||-7\------------------------|-------------------------|-7\------------------------|
E||---------------------------|-------------------------|---------------------------|


|-10-7-9-10p9p7--------------------|--------------------------|-------------------------|
|---------------10-7-10---10---10--|-------7-----10-7-9-7-----|-------7-----------------|
|-----------------------9----7-----|-----9---9------------9---|-----9---9---7-6-------6-|
|----------------------------------|---9-------9------------9-|---9-------9-----9-7-9---|
|----------------------------------|-7------------------------|-7-----------------------|
|----------------------------------|--------------------------|-------------------------|
|
|----------------------------------|--------------------------|-------------------------|
|----------------------------------|--------------------------|-------------------------|
|---------------------/11---9----7-|--------------------------|-------------------------|
|----------------------------------|-2------------------------|-(2)---------------------|
|---------------------/9----7----5-|-2------------------------|-(2)---------------------|
|----------------------------------|-0------------------------|-(0)---------------------|


|--------------------------|-------------710p7-12p9-----||
|-------7-----10-7-9-7-----|-----------8-------------10--||
|---------9------------9---|-------4s7-------------------||
|-9---9-----9------------9-|-----7-----------------------||
|---7----------------------|---5-------------------------||
|--------------------------|-3---------------------------||
|
|--------------------------|-----------------------------||
|--------------------------|-----------------------------||
|-9------------------------|-------------2---------------||
|-9------------------------|-5-----------2---------------||
|-7------------------------|-5-----------0---------------||
|--------------------------|-3---------------------------||


Main Riff 2

|----------14-------17-14-16-14-------|----------14-------------------------|
|-------17----17----------------17----|-------17----17----15-14----------14-|
|----16----------16----------------16-|----16----------16-------16-14-16----|
|-14----------------------------------|-14----------------------------------|
|-------------------------------------|-------------------------------------|
|-------------------------------------|-------------------------------------|
|
|-------------------------------------|------------------------------------|
|-------------------5-----------------|-(5)--------------------------------|
|-------------------4-----------------|-(4)----------------2---------------|
|-2-----------------2-----------------|-(2)----------------2---------------|
|-2----------------(2)----------------|-(2)----------------0---------------|
|-0----------------(0)----------------|-(0)--------------------------------|


|----------14-------17-14-16-14-------|-22-19-21-22p21p19----------------------|
|-------------17----------------17----|-------------------22-19-22----22----22-|
|-16----16-------16----------------16-|----------------------------21----19----|
|----14-------------------------------|----------------------------------------|
|-------------------------------------|----------------------------------------|
|-------------------------------------|----------------------------------------|
|
|-------------------------------------|-------------------------------------|
|-------------------5-----------------|-----------------------3-------------|
|-------------------4-----------------|-----------------------2-------------|
|-2-----------------2-----------------|-5---------------------0-------------|
|-2----------------(2)----------------|-5-----------------------------------|
|-0----------------(0)----------------|-3-----------------------------------|


|----------14-------17-14-16-14-------|----------14--------------------------|
|-------17----17----------------17----|-------17----17----15-14----------14--|
|----16----------16----------------16-|----16----------16-------16-14-16-----|
|-14----------------------------------|-14-----------------------------------|
|-------------------------------------|--------------------------------------|
|-------------------------------------|--------------------------------------|
|
|---------------------------------------|------------------------------------|
|-------------------5-------------------|-(5)--------------------------------|
|-------------------4-------------------|-(4)--------------2-----------------|
|-2-----------------2-------------------|-(2)--------------2-----------------|
|-2----------------(2)------------------|-(2)--------------0-----------------|
|-0----------------(0)------------------|-(0)--------------------------------|


|----------14-------17-14-16-14-------|-------------------19-22-19-24-21----||
|-------------17----------------17----|----------------20----------------22-||
|-16----16-------16----------------16-|----------16s19----------------------||
|----14-------------------------------|-------19----------------------------||
|-------------------------------------|----17-------------------------------||
|-------------------------------------|-15----------------------------------||
|
|-------------------------------------|-------------------------------------||
|-------------------5-----------------|--------------------3----------------||
|-------------------4-----------------|--------------------2----------------||
|-2-----------------2-----------------|-5------------------0----------------||
|-2----------------(2)----------------|-5-----------------------------------||
|-0----------------(0)----------------|-3-----------------------------------||


Part 1

|----------------------|------------------------|--------------|-----------------|
|----------------------|------------------------|--------------|-----------------|
|--13--14--16--14s16~--|-------13-14-16-14-13s9=|s11s7-7~------|--(7)-\----------|
|----------------------|------------------------|--------------|-----------------|
|----------------------|------------------------|--------------|-----------------|
|----------------------|------------------------|--------------|-----------------|
|
|----------------------|------------------------|--------------|-----------------|
|----------------------|------------------------|--------------|-----------------|
|-9--------------------|-9-----9----------------|--------------|-----------------|
|-9--------------------|-9-----9----------------|-9----9-------|----------9------|
|-7--------------------|-7-----7----------------|-9----9-------|----------9------|
|----------------------|------------------------|-7----7-------|----------7------|


|--------------------|-----------------------|------------------|---------------------|
|--------------------|-----------------------|------------------|---------------------|
|-11--13--14--13b14~-|----11--13--14--1311s=|7s9~--------------|-------------(9)\----|
|--------------------|-----------------------|------------------|---------------------|
|--------------------|-----------------------|------------------|---------------------|
|--------------------|-----------------------|------------------|---------------------|
|
| 					    PM|
|--------------------|-------------------|----------------------|---------------------|
|--------------------|-------------------|----------------------|---------------------|
|-7------------------|------------7------|----------------------|---------------------|
|-7------------------|------------7------|----------------------|-------6-7-6---------|
|-5------------------|------------5------|---7------5p0-4p0-2p0-|---7-7-------9-5-7-9-|
|--------------------|-------------------|-0----0-0-------------|-0-------------------|



|------------------|-------------------------------|-------------------|
|------------------|-------14-15~--14h15p14--------|-------------------|
|-13-14-16-14s16~--|-\x/16------------------16-14--|--16\---11--11~----|
|------------------|-------------------------------|-------------------|
|------------------|-------------------------------|-------------------|
|------------------|-------------------------------|-------------------|
|
|------------------|-------------------------------|--------------------|
|------------------|-------------------------------|--------------------|
|-9----------------|----------9--------------------|--------------------|
|-9----------------|----------9--------------------|-9------------------|
|-7----------------|----------7--------------------|-9------------------|
|------------------|-------------------------------|-7------------------|



|------------|-----------------------|--------------------|---------------------|
|------------|----------14-----------|--------14----------|---------------------|
|--------7/--|--14--16------16b18~---|--14-16-----16--14--|-14s16===s12--12~----|
|------------|-----------------------|--------------------|---------------------|
|------------|-----------------------|--------------------|---------------------|
|------------|-----------------------|--------------------|---------------------|
|
|------------|-----------------------|--------------------|---------------------|
|------------|-----------------------|--------------------|---------------------|
|------------|-----------------------|--------------------|---------------------|
|----9-------|-4---------------------|-4------------------|-5-------------------|
|----9-------|-4---------------------|-4------------------|-5-------------------|
|----7-------|-2---------------------|-2------------------|-3-------------------|



|-------------------|----------------------|----------------------|----------------|
|-------------------|--12--14--15--14b16~==|=r\------15----17-----|-17b19=19=19~\--|
|------(12)\-7/-11--|----------------------|----7s14----14----14--|----------------|
|-------------------|----------------------|----------------------|----------------|
|-------------------|----------------------|----------------------|----------------|
|-------------------|----------------------|----------------------|----------------|
|
|--3------3---------|----------------------|-----------------------|----------------|
|--3------3---------|----------------------|-----------------------|----------------|
|--4-----(4)--------|--4-------------------|----6------------------|-7--------------|
|-(5)----(5)--------|--4-------------------|----6------------------|-7--------------|
|-(5)----(5)--------|--2-------------------|----4------------------|-5--------------|
|-(3)----(3)--------|----------------------|-----------------------|----------------|


|--------------------16-----|----------------|-------------------------|-----19--19~---|------||
|--------17----19-----------|-21b22=22=22~---|---19-21-22--21--19s17---|-19------------|------||
|---9s16----16----16----16--|----------------|-------------------------|---------------|------||
|---------------------------|----------------|-------------------------|---------------|------||
|---------------------------|----------------|-------------------------|---------------|------||
|---------------------------|----------------|-------------------------|---------------|------||
|
|---------------------------|----------------|-------------------------|---------------|------||
|---------------------------|----------------|-------------------------|---------------|------||
|---9-----------------------|-11-------------|----------9--------------|---------------|------||
|---9-----------------------|-11-------------|----------9--------------|-9-------------|-9----||
|---7-----------------------|-9--------------|----------7--------------|-9-------------|-9----||
|---------------------------|----------------|-------------------------|-7-------------|-7----||


Main Riff

|---------------------------|-------------------------|---------------------------|
|--------7-----10-7-9-7-----|-------7-----------------|-------7-----10-7-9-7------|
|------9---9------------9---|-----9---9---7-6-------6-|---------9------------9----|
|----9-------9------------9-|---9-------9-----9-7-9---|-9---9-----9------------9--|
|--7------------------------|-7-----------------------|---7-----------------------|
|---------------------------|-------------------------|---------------------------|
|
|--------------------------|--------------------------|----------------------------|
|---------------5----------|-(5)----------------------|---------------5------------|
|---------------4----------|-(4)----------2-----------|---------------4------------|
|-2-------------2----------|-(2)----------2-----------|-2-------------2------------|
|-2------------(2)---------|-(2)----------0-----------|-2------------(2)-----------|
|-0------------(0)---------|-(0)----------------------|-0------------(0)-----------|


|-10-7-9-10p9p7--------------------|--------------------------|-------------------------|
|---------------10-7-10---10---10--|-------7-----10-7-9-7-----|-------7-----------------|
|-----------------------9----7-----|-----9---9------------9---|-----9---9---7-6-------6-|
|----------------------------------|---9-------9------------9-|---9-------9-----9-7-9---|
|----------------------------------|-7------------------------|-7-----------------------|
|----------------------------------|--------------------------|-------------------------|
|
|----------------------------------|--------------------------|-------------------------|
|------------------3---------------|--------------5-----------|-(5)---------------------|
|------------------2---------------|--------------4-----------|-(4)---------2-----------|
|-5----------------0---------------|-2------------2-----------|-(2)---------2-----------|
|-5--------------------------------|-2-----------(2)----------|-(2)---------0-----------|
|-3--------------------------------|-0-----------(0)----------|-(0)---------------------|


|--------------------------|-------------710p7-12p9-----||
|-------7-----10-7-9-7-----|-----------8-------------10--||
|---------9------------9---|-------4s7-------------------||
|-9---9-----9------------9-|-----7-----------------------||
|---7----------------------|---5-------------------------||
|--------------------------|-3---------------------------||
|
|--------------------------|-----------------------------||
|--------------5-----------|-----------------------------||
|--------------4-----------|-------------2---------------||
|-2------------2-----------|-5-----------2---------------||
|-2-----------(2)----------|-5-----------0---------------||
|-0-----------(0)----------|-3---------------------------||



Part 2


|-/16--17--1917s19~---|----16-1719--17--16--------|-----------|---------------|
|----------------------|---------------------17-17s-|-19S15-15~-|----(15)s10/---|
|----------------------|----------------------------|-----------|---------------|
|----------------------|----------------------------|-----------|---------------|
|----------------------|----------------------------|-----------|---------------|
|----------------------|----------------------------|-----------|---------------|
|
|----------------------|----------------------------|-----------|---------------|
|----------------------|----------------------------|-----------|---------------|
|-9--------------------|-----9----------------------|-----------|---------------|
|-9--------------------|-----9----------------------|-9---------|-----9---------|
|-7--------------------|-----7----------------------|-9---------|-----9---------|
|----------------------|----------------------------|-7---------|-----7---------|

[ Tab from: http://www.guitaretab.com/j/john-petrucci/35362.html ]
|--14--16--17--16b17~---|--14-1617p016p0-14-----|-----------------19----17--|
|-----------------------|---------------------15s=|-17~-------17--------------|
|-----------------------|-------------------------|--------16----16----16-----|
|-----------------------|-------------------------|---------------------------|
|-----------------------|-------------------------|---------------------------|
|-----------------------|-------------------------|---------------------------|
|
| 					              PM-|
|-----------------------|------------------------|---------------------------|
|-----------------------|------------------------|---------------------------|
|-7---------------------|---------7--------------|---------------------------|
|-7---------------------|---------7--------------|---------------------------|
|-5---------------------|---------5--------------|----7--------5p0--4p0--2p0-|
|-----------------------|------------------------|-0-----0--0----------------|


|-16----------16----------19-16-----|--16--17-19--17s19~--|----19-21-22---21--19s17--|
|----19-17-19----17----17-------17--|----------------------|--------------------------|
|-------------------16--------------|----------------------|--------------------------|
|-----------------------------------|----------------------|--------------------------|
|-----------------------------------|----------------------|--------------------------|
|-----------------------------------|----------------------|--------------------------|
|
|-----------------------------------|----------------------|--------------------------|
|-----------------------------------|----------------------|--------------------------|
|-----------------------------------|-9--------------------|------------9-------------|
|---------6---7---6-----------------|-9--------------------|------------9-------------|
|---7--7-------------9--5--7--9-----|-7--------------------|------------7-------------|
|-0---------------------------------|----------------------|--------------------------|


|--19S14--14~---|-----(14)s5/--|--17--19--21--19b21~-|
|---------------|--------------|---------------------|
|---------------|--------------|---------------------|
|---------------|--------------|---------------------|
|---------------|--------------|---------------------|
|---------------|--------------|---------------------|
|
|---------------|--------------|---------------------|
|---------------|--------------|---------------------|
|---------------|--------------|---------------------|
|-9-------------|------9-------|--4------------------|
|-9-------------|------9-------|--4------------------|
|-7-------------|------7-------|--2------------------|



|----17-19-21--19--17--|-17s19~--19s21--|-19~--(19)\-|
|----------------------|----------------|------------|
|----------------------|----------------|------------|
|----------------------|----------------|------------|
|----------------------|----------------|------------|
|----------------------|----------------|------------|
|
|----------------------|----------------|-3-(3)--3--|
|----------------------|----------------|-----3------|
|----------------------|----------------|------------|
|----------4-----------|-5--------------|-(5)--------|
|----------4-----------|-5--------------|-(5)--------|
|----------2-----------|-3--------------|-(3)--------|


|-----------14----12--10----------10-|----------14p10----12p9----/17p12----|
|-----12-----------------14-12-14----|-12----12-------12------10--------14-|
|-/11----11----11--------------------|----11-------------------------------|
|------------------------------------|-------------------------------------|
|------------------------------------|-------------------------------------|
|------------------------------------|-------------------------------------|
|
|------------------------------------|-------------------------------------|
|------------------------------------|-------------------------------------|
|-9----------------------------------|-------------------6-----------------|
|-9----------------------------------|-------------------6-----------------|
|-7----------------------------------|-------------------4-----------------|
|------------------------------------|-------------------------------------|

|----------------17--14----------14-|----------17p14----16p12----/19p16----|
|----15----17-----------17-15-17----|-15----15-------15-------12--------17-|
|-14----14----14--------------------|----14--------------------------------|
|-----------------------------------|--------------------------------------|
|-----------------------------------|--------------------------------------|
|-----------------------------------|--------------------------------------|
|
|-----------------------------------|-------------------------------------|
|-----------------------------------|-------------------------------------|
|-7---------------------------------|-------------------9-----------------|
|-7---------------------------------|-------------------9-----------------|
|-5---------------------------------|-------------------7-----------------|
|-----------------------------------|-------------------------------------|

|-----------21----19--17----------17--|----------21p17----19p16-------------------------16--|
|-----19-----------------21-19-21-----|-19----19-------19-------17-------------------17-----|
|-/18----18----18---------------------|----18----------------------16-------------16--------|
|-------------------------------------|-------------------------------18-------18-----------|
|-------------------------------------|----------------------------------19-19--------------|
|-------------------------------------|-----------------------------------------------------|
|
|-------------------------------------|-------------------------------------|
|-------------------------------------|-------------------------------------|
|-11----------------------------------|---------------------9---------------|
|-11----------------------------------|---------------------9---------------|
|--9----------------------------------|---------------------7---------------|
|-------------------------------------|-------------------------------------|

|--19------------------|-----------------------------||
|------17p019p017p0--|-16p0-14p0-12p0-10p0-9p0-7p0-||
|----------------------|-----------------------------||
|----------------------|-----------------------------||
|----------------------|-----------------------------||
|----------------------|-----------------------------||
|
|----------------------|-----------------------------||
|----------------------|-----------------------------||
|----------------------|-----------------------------||
|--9-------------------|-9---------------------------||
|--9-------------------|-9---------------------------||
|--7-------------------|-7---------------------------||


Main Riff 2

|----------14-------17-14-16-14-------|----------14-------------------------|
|-------17----17----------------17----|-------17----17----15-14----------14-|
|----16----------16----------------16-|----16----------16-------16-14-16----|
|-14----------------------------------|-14----------------------------------|
|-------------------------------------|-------------------------------------|
|-------------------------------------|-------------------------------------|
|
|           PM-|
|-------------------------------------|--------------------------------------|
|-------------------------------------|--------------------------------------|
|-------------------------------------|---------------------2--------------2-|
|-------------------------------------|---------------------2-----------2----|
|-----7-------------5p0---4p0---2p0---|-----7---------------0--------4-------|
|-0---------0---0---------------------|-0------------------------------------|


|----------14-------17-14-16-14-------|-22-19-21-22p21p19----------------------|
|-------------17----------------17----|-------------------22-19-22----22----22-|
|-16----16-------16----------------16-|----------------------------21----19----|
|----14-------------------------------|----------------------------------------|
|-------------------------------------|----------------------------------------|
|-------------------------------------|----------------------------------------|
|
|           PM-|
|--------------------------------------|------------------------------------|
|--------------------------------------|-------------------3----------------|
|--------------------------------------|-------------------2----------------|
|--------------------------------------|-5-----------------0----------------|
|-----7-------------5p0---4p0---2p0----|-5----------------------------------|
|-0---------0---0----------------------|-3----------------------------------|


|----------14-------17-14-16-14-------|----------14--------------------------|
|-------17----17----------------17----|-------17----17----15-14----------14--|
|----16----------16----------------16-|----16----------16-------16-14-16-----|
|-14----------------------------------|-14-----------------------------------|
|-------------------------------------|--------------------------------------|
|-------------------------------------|--------------------------------------|
|
|           PM-|
|--------------------------------------|------------------------------------|
|--------------------------------------|------------------------------------|
|--------------------------------------|---------------------2------------2-|
|--------------------------------------|---------------------2---------2----|
|-----7-------------5p0---4p0---2p0----|-----7---------------0------4-------|
|-0---------0---0----------------------|-0----------------------------------|

|----------14-------17-14-16-14-------|-------------------19-22-19-24-21----||
|-------------17----------------17----|----------------20----------------22-||
|-16----16-------16----------------16-|----------16s19----------------------||
|----14-------------------------------|-------19----------------------------||
|-------------------------------------|----17-------------------------------||
|-------------------------------------|-15----------------------------------||
|
|           PM-|
|--------------------------------------|------------------------------------||
|--------------------------------------|------------------------------------||
|--------------------------------------|-------------------2----------------||
|--------------------------------------|-5-----------------2----------------||
|-----7-------------5p0---4p0---2p0----|-5-----------------0----------------||
|-0---------0---0----------------------|-3----------------------------------||



|----7-----7-9-5h7p5p4---|---7-------------------|---7-----7-9-5h7p5p4---|-------------------|
|------5-7-------------7-|-----5-7-4-5-4h5p4-----|-----5-7-------------7-|-5p4---------------|
|--4---------------------|-4-----------------6---|-4---------------------|-----6-4-----------|
|------------------------|---------------------7-|-----------------------|---------7-6-4-6-7-|
|------------------------|-----------------------|-----------------------|-------------------|
|------------------------|-----------------------|-----------------------|-------------------|
|
|                                                                          PM--------------|
|------------------------|-----------------------|-----------------------|-------------------|
|------------------------|-----------------------|-----------------------|-------------------|
|------------------------|-----------------------|-----------------------|-------------------|
|-9\---------------------|-9-9-9-----------------|-9---------------------|-2-1---------------|
|-9\---------------------|-9-9-9-----------------|-9---------------------|-----4-2-----------|
|-7\---------------------|-7-7-7-----------------|-7---------------------|---------5-4-2-4-5-|


|----7-----7-9-5h7p5p4---|---7-------------------|---7-----7-9-5h7p5p4---|-7p4-5p4-----------|
|------5-7-------------7-|-----5-7-4-5-4h5p4-----|-----5-7-------------7-|---------7-5-4-5-7-|
|--4---------------------|-4-----------------6---|-4---------------------|-------------------|
|------------------------|---------------------7-|-----------------------|-------------------|
|------------------------|-----------------------|-----------------------|-------------------|
|------------------------|-----------------------|-----------------------|-------------------|
|
|                                                                          PM--------------|
|------------------------|-----------------------|-----------------------|-------------------|
|------------------------|-----------------------|-----------------------|-------------------|
|------------------------|-----------------------|-----------------------|-4-1-2-1-----------|
|-9\---------------------|-9-9-9-----------------|-9---------------------|---------4-2-1-2-4-|
|-9\---------------------|-9-9-9-----------------|-9---------------------|-------------------|
|-7\---------------------|-7-7-7-----------------|-7---------------------|-------------------|




||-----7-----7-9-5h7p5p4---|---7-------------------|---7-----7-9-5h7p5p4---|-------------------|
||-------5-7-------------7-|-----5-7-4-5-4h5p4-----|-----5-7-------------7-|-5p4---------------|
||o--4---------------------|-4-----------------6---|-4---------------------|-----6-4-----------|
||o------------------------|---------------------7-|-----------------------|---------7-6-4-6-7-|
||-------------------------|-----------------------|-----------------------|-------------------|
||-------------------------|-----------------------|-----------------------|-------------------|
||
||                                                                          
||---------------------|----------------------------|------------------|-------------------------|
||---------------------|----------9-10-9h10p9-------|------------------|-10p9--------------------|
||o-------------------|----------------------11----|------------------|------11-9---------------|
||o-------------------|-------------------------13-|------------------|-----------13-11-9-11-13-|
||---------------------|----------------------------|------------------|-------------------------|
||---------------------|----------------------------|------------------|-------------------------|



|----7-----7-9-5h7p5p4---|---7-------------------|---7-----7-9-5h7p5p4---|-7p4-5p4-----------||
|------5-7-------------7-|-----5-7-4-5-4h5p4-----|-----5-7-------------7-|---------7-5-4-5-7-||
|--4---------------------|-4-----------------6---|-4---------------------|------------------o||
|------------------------|---------------------7-|-----------------------|------------------o||
|------------------------|-----------------------|-----------------------|-------------------||
|------------------------|-----------------------|-----------------------|-------------------||
|
|                                                             
|--------------------|----------------------------|------------------|-12p9-11p9---------------||
|--------------------|----------9-10-9h10p9-------|------------------|-----------12-10-9-10-12-||
|--------------------|----------------------11----|------------------|------------------------o||
|--------------------|-------------------------13-|------------------|------------------------o||
|--------------------|----------------------------|------------------|-------------------------||
|--------------------|----------------------------|------------------|-------------------------||

Guitar pattern

|-----------------------|----------------------|-----------------------|------------------|
|-7-7--7-9-10p9p7---7-9-|-7--------------------|-----------------------|------------------|
|-----------------9-----|------6-8-9p8p6-----6-|-----------------------|------------------|
|-----------------------|---9------------7-9---|-9-9----67p6--------6-|------------------|
|-----------------------|----------------------|------9--------9-7-9---|-9------6-7p6-----|
|-----------------------|----------------------|-----------------------|---7--9-------9-5-|

|-------------------------------|--------------------------------|
|-12-1212-14-15p14p12----12-14-|-12-----------------------------|
|----------------------14-------|--------11-13-14p13p11-------11-|
|-------------------------------|----14-----------------12-14----|
|-------------------------------|--------------------------------|
|-------------------------------|--------------------------------|

|--------------------------------|-----------------------||
|--------------------------------|-----------------------||
|--------------------------------|-----------------------||
|-14-14-----11-12p11----------11-|-----------------------||
|--------14----------14-12-14----|-14--------11-12--11S9-||
|--------------------------------|----12--14-------------||
Related for Glasgow Kiss tab