Song name
# A B C D E F G H I J K L M N O P Q R S T U V W X Y Z

John Williams - Star Wars Theme tab

Star wars by: John Williams    for guitar 
tabbed by: Chris + Jen      
standard tuning 
~= hold note
i wanted this star wars song but couldnt find it
i converted this with help from correct clarinet sheet music so its 
prboably wrong

e|---------------|     --------------------------|---------|
B|---------------|     --------------------------|---------|
G|-2~-9~~~--7-64-|x2   -2~---9~~~--7-67-4~~~~~~~-|---------|
D|---------------|     --------------------------|-2-4~~-4-|          
A|---------------|     --------------------------|---------|
E|---------------|     --------------------------|---------|
               
e|-------------------|------------------------|------------------|
B|-------------------|------------------------|------------------|
G|-7-6-4-2-2-46-4----|-rest~~~~~~-------------|-7-6-4-2-9~-4~~~~-|
D|-----------------4-|------------6~~-2-4~~-4-|------------------|
A|-------------------|------------------------|------------------|
E|-------------------|------------------------|------------------|

e|------------------------|---------------|------------------|
B|------------------------|---------------|------------------|
G|---------7-6-4-2-2-46-4-|---------------|-7-6-4-2-9~~~~~~~-|
D|-2-4~~-4----------------|-4-6~~-2-4~~-4-|------------------|
A|------------------------|---------------|------------------|
E|------------------------|---------------|------------------|

e|---------------------|    ----------------------|--------------|
B|---------------------|    ----------------------|--------------|
G|-2-9~~~-7-64-9~-9~~~-|x2  -7-67-4~~~~~~~-2-9~~~-|-7-64-9~-9~~~-|
D|---------------------|    ----------------------|--------------|
A|---------------------|    ----------------------|--------------|
E|---------------------|    ----------------------|--------------|
                       its a 10 not a 1 and a 0
e|--------------|---------------|------|
B|--------------|---------------|------|
G|-7-64-9~-9~~~-|-7-64-2---2-10-|-9~-9-|
D|--------------|--------4------|------|
A|--------------|---------------|------|
E|--------------|---------------|- -----|

may the schwartz, i mean force, be with you
Tap to rate this tab
# A B C D E F G H I J K L M N O P Q R S T U V W X Y Z