Guitaretab - guitar tabs
Song name
# A B C D E F G H I J K L M N O P Q R S T U V W X Y Z

Johnny Winter - Jumpin Jack Flash tab

Artist: Johnny Winter
Composer:Kieth Richards
Tuning:Standard eBGDAE
Song: Jumpin' Jack Flash


 Verse And intro
e|-----------------------------|
B|-----------------------------|
G|-----------------------------|
D|9-9----7^--------------------|
A|9-9-7-9----------------------|
E|7-7--------------------------|
[ Tab from: http://www.guitaretab.com/j/johnny-winter/149302.html ]
  Chorus
e|2-----0-----------------------|
B|3---2-0-0---------------------|
G|2---2-1-1---4-----------------|
D|----2-2-2---4-----------------|
A|------2---2-------------------|
E|------0-----------------------|

brige after chorus
e|7-7-7--7-7-7------------------|
B|7-7-7--7-7-7------------------|
G|8-8-8--8-8-8------------------|
D|9-9-9--9-9-9-----9-9-----7^---|
A|9-9-9--9-9-9-----9-9--7-9-----|
E|7-7-7--7-7-7-----7-7----------|

Intro solo
e|------------------------------|
B|------------------------------|
G|------9---7---6---4-----------|
D|9-9---9---7---6---4-----------|
A|9-9---7---5---4---2-----------|
E|7-7---------------------------|

by:stanley_91_@msn.com
Related for Jumpin Jack Flash tab
Jumpin Jack Flash chords by Johnny Winter