Song name
# A B C D E F G H I J K L M N O P Q R S T U V W X Y Z

Jonah33 - Shine tab

INTRO
e|---------------------------------------------------------------|
B|---------------------------------------------------------------|
G|---------------------------------------------------------------|
D|--000-3-3--000-3-3--00-3-3--00-3-3--00-3-3--00-3-0-10-12-12----|
A|--000-3-3--000-3-3--00-3-3--00-3-3--00-3-3--00-3-0-10-12-12----|
D|--000-3-3--000-3-3--00-3-3--00-3-3--00-3-3--00-3-0-10-12-12----|
                    ^                            ^            ^
           drums and bass join you          pretend there's no dashes
                                        (for legibility's sake there are)

e|---------------------------------------------------------------------|
B|---------------------------------------------------------------------|
G|---------------------------------------------------------------------|
D|--00-3-3-00-00-3-3--00-00-3-3--00--00-3-0-10-12-12-12----------------|
A|--00-3-3-00-00-3-3--00-00-3-3--00--00-3-0-10-12-12-12----------------|
D|--00-3-3-00-00-3-3--00-00-3-3--00--00-3-0-10-12-12-12----------------|
           **         **         **
Tap to rate this tab
 
# A B C D E F G H I J K L M N O P Q R S T U V W X Y Z