Jonas Brothers - Things Will Never Be The Same tab

           Things Will Never Be The Same - Jonas Brothers

Intro:
e|----------------------------------------------------|
B|----------------------------------------------------|
G|------------5555-------------------5555-------------|
D|-xxxx-3333--5555--555555/77--3333--5555--555555/77--|
A|-xxxx-3333--3333--555555/77--3333--3333--555555/77--|
E|-xxxx-1111--------333333/55--1111--------333333/55--|

Verse:
e|--------------------------|    |------|
B|--------------------------|    |------|
G|--------------------------|    |------|
D|--------------------------| x4 |--5~--|
A|--3333--5555--7777--------|    |--5~--|
E|--5555--7777--8888--5555--|    |--3~--|
    ****  ****  ****  ****

Chorus:
e|-------------------------|    |--------------------|
B|-------------------------|    |--------------------|
G|--------5555-------------|    |--------5555--------|
D|--3333--5555--555555/77--| x3 |--3333--5555--5555--|
A|--3333--3333--555555/77--|    |--3333--3333--5555--|
E|--1111--------333333/55--|    |--1111--------3333--|

Post-chorus:
e|--------------------------|
B|--------------------------|
G|--------------------------|
D|--------------------------|
A|--3333--5555--7777--------|
E|--5555--7777--8888--5555--|
    ****  ****  ****  ****

Verse:
e|--------------------------|    |------|
B|--------------------------|    |------|
G|--------------------------|    |------|
D|--------------------------| x4 |--5~--|
A|--3333--5555--7777--------|    |--5~--|
E|--5555--7777--8888--5555--|    |--3~--|
    ****  ****  ****  ****

Chorus:
e|-------------------------|
B|-------------------------|
G|--------5555-------------|
D|--3333--5555--555555/77--| x4
A|--3333--3333--555555/77--|
E|--1111--------333333/55--|

Bridge:
e|------------------------|    
B|------------------------|    
G|--5555------------------|    
D|--5555--5555--33333333--| x2 
A|--3333--5555--33333333--|    
E|--------3333--11111111--|    

e|-------------------------------------------|
B|-------------------------------------------|
G|--------5555-------------------5555--------|
D|--3333--5555--555555/77--3333--5555--5555--| 
A|--3333--3333--555555/77--3333--3333--5555--|
E|--1111--------333333/55--1111--------3333--|
    ****  ****  *********  ****  ****  ****
 
Chorus:
e|-------------------------|
B|-------------------------|
G|--------5555-------------|
D|--3333--5555--555555/77--| x4
A|--3333--3333--555555/77--|
E|--1111--------333333/55--|

e|----------------------------|
B|----------------------------|
G|-----------5555-------------|
D|--x--3333--5555--555555/77--|
A|--x--3333--3333--555555/77--|
E|--x--1111--------333333/55--|
    ^ = short pause

e|-------------------------|
B|-------------------------|
G|--------5555-------------|
D|--3333--5555--555555/77--| x4
A|--3333--3333--555555/77--|
E|--1111--------333333/55--|

Outro:
e|--------------------------|
B|--------------------------|
G|--------------------------|
D|--------------------------|
A|--3333--5555--7777--------|
E|--5555--7777--8888--5555--|
    ****  ****  ****  ****
Tap to rate this tab
 
# A B C D E F G H I J K L M N O P Q R S T U V W X Y Z