Song name
# A B C D E F G H I J K L M N O P Q R S T U V W X Y Z

Jonas Brothers - Thats Just The Way We Roll tab

Main Riff
e|-2-------------------------------------------------------------------------|
B|----3---1---3-3-1--3---1---------------------------------------------------|
G|---------------------------4-----------------------------------------------|
D|---------------------------------------------------------------------------|
A|---------------------------------------------------------------------------|
E|---------------------------------------------------------------------------|

Verse
e|--------------------------------|
B|--------------------------------|
G|--7---5-------7---5-------------|
D|--7---5---5---7---5--5--2--5--7-|
A|--5---3---5---5---3--5--2--5--7-|
E|----------3----------3--0--3--5-|
PM [....................]

Chorus
e |-------------------------------------|
B |-------------------------------------|
G |----7-----7-----7--9--11--12---------|
D |-5--7--5--7--5--7--9--11--12---------|
A |-5--5--5--5--5--5--7--9---10---------|
E |-3-----3-----3-----------------------|

Main Riff

Main Riff
e|-2-------------------------------------------------------------------------|
B|----3---1---3-3-1--3---1---------------------------------------------------|
G|---------------------------4-----------------------------------------------|
D|---------------------------------------------------------------------------|
A|---------------------------------------------------------------------------|
E|---------------------------------------------------------------------------|

Verse
e|--------------------------------|
B|--------------------------------|
G|--7---5-------7---5-------------|
D|--7---5---5---7---5--5--2--5--7-|
A|--5---3---5---5---3--5--2--5--7-|
E|----------3----------3--0--3--5-|
PM [....................]

Chorus
e |-------------------------------------|
B |-------------------------------------|
G |----7-----7-----7--9--11--12---------|
D |-5--7--5--7--5--7--9--11--12---------|
A |-5--5--5--5--5--5--7--9---10---------|
E |-3-----3-----3-----------------------|

e|----------------|
B|----------------|
G|---------7--9---|
D|--2---5--7--9---|
A|--2---5--5--7---|
E|--0---3---------|

---thump thump thump---

Chorus
e |-------------------------------------|
B |-------------------------------------|
G |----7-----7-----7--9--11--12---------|
D |-5--7--5--7--5--7--9--11--12---------|
A |-5--5--5--5--5--5--7--9---10---------|
E |-3-----3-----3-----------------------|

Main Riff
e|-2-------------------------------------------------------------------------|
B|----3---1---3-3-1--3---1---------------------------------------------------|
G|---------------------------4-----------------------------------------------|
D|---------------------------------------------------------------------------|
A|---------------------------------------------------------------------------|
E|---------------------------------------------------------------------------|

e |-------|
B |-------|
G |---7~--|
D |---7~--|
A |---5~--|
E |-------|
Tap to rate this tab
# A B C D E F G H I J K L M N O P Q R S T U V W X Y Z