Song name
# A B C D E F G H I J K L M N O P Q R S T U V W X Y Z

Killing Joke - Adorations tab

ADORATIONS. Album: Brighter Than a Thousand Suns (1986)

MAIN RIFF/ VERSES

D----------------------------------------|
A--8--8---7--7---8--8---5------5---------|
F--5--5---5--5---5--5------5------5----5-|
C-----------------------------5------5---|
G----------------------------------------|
D----------------------------------------|

RIFF 2 Let ring

D--3--3----5--5----6--6-----------0--------|
A--3--3----5--5----6--6--------------------|
F--0--0----0--0----0--0--------0-----0-----|
C----------------------------4-----------4-|
G-------------------------2----------------|
D------------------------------------------|


CHORUS Let ring

D--0---------------------------0------------------------|
A-----3---------------------------3---------------------|
F--------0-----------------0---------0------------------|
C-----------2---0-------2---------------2---0-----0-----|
G-------------------3--------------------------3-----2--|
D-------------------------------------------------------|

X2
D----------3----------3-|
A-----3----3-----3----3-|
F----0-----0----0-----0-|
C--0-----------0--------|
G-----------------------|
D-----------------------|

BREAK Let ring

D----------------------------------|
A--7-----5---0---------------------|
F----------------7---5---0-------0-|
C----------------------------------|
G-----7-----------------------7----|
D----------------------------------|
Tap to rate this tab
 
# A B C D E F G H I J K L M N O P Q R S T U V W X Y Z