Guitaretab - guitar tabs
Song name
# A B C D E F G H I J K L M N O P Q R S T U V W X Y Z

Killing Joke - Communion tab

COMMUNION. Album: Pandemonium (1994) Simplified.
Updated Jan; 23 2006


MAIN RIFF 1 Let ring except when noted X.

D-------------------------|
A-------------------------|
F-4-4-4-4-7^6-6-6-6-6-5^4-|
C-6-6-6-6-6----6-6-6-6-6--|
G-4-4-4-4-4----4-4-4-4-4--|
D-------------------------|

RIFF 1b alternate..............................RIFF 1 alternate

D--------------------------------------------)-----------------------|
A--------------------------------------------)-----------------------|
F--4--4-x-x-4--4-4--7--6--6-x-x-6--6-6--5-5--)--4-4-4-4-7--6-6-6-6-5-|
C--6--6-x-x-6--6-6--6--6--6-x-x-6--6-6--6-6--)--6-6-6-6-6--6-6-6-6-6-|
G--4--4-x-x-4--4-4--4--4--4-x-x-4--4-4--4-4--)--4------------4-------|
D--------------------------------------------)-----------------------|

RIFF 2. Let ring...( X 1 in verses, X 2 before the chorus)

D------------------------------|
A------------------------------|
F-6-----6----------6--6-X-X-6--|
C-4--4-4^5-5-5^6-6--6-X-X-6--|
G-4--4--4---4--4---4--4-X-X-4--|
D------------------------------|

CHORUS 1

D--------------------------|
A--------------------------|
F-11-x-14-x-10-x-12-x-12-x-|
C-11-x-14-x-10-x-12-x-12-x-|
G--9-x-12-x--8-x-10-x-10-x-|
D--------------------------|

RIFF 3 Break
[ Tab from: http://www.guitaretab.com/k/killing-joke/142808.html ]
		X 2			X 2			X 1
D-----------------)-----------------)---------------------)
A-----------------)-----------------)---------------------)
F-6-6--6--6-6--6-)-8--8--8--8-8--8-)-11-11-11--11-11--11-)
C-6--6--6--6-6--6-)-8--8--8--8-8--8-)-11-11-11--11-11--11-)
G-4--4--4--4-4--4-)-6--6--6--6-6--6-)--9--9--9---9--9---9-)
D-----------------)-----------------)---------------------)

			X 1						X 1
D-----------------------)---------------------------------------------)
A-----------------------)---------------------------------------------)
F-14--14--14--14-14--14-)-10-10-10--10-10--10---12-12-12--12-12--12---)
C-14--14--14--14-14-14-)-10-10-10--10-10--10---12-12-12--12-12--12---)
G-12--12--12--12-12--12-)--8--8--8---8--8---8---10-10-10--10-10--10---)
D-----------------------)---------------------------------------------)

CHORUS   As played before harmonics part (violin solo).^=bend half a tone.

D---------------------------------------------------------------)
A---------------------------------------------------------------)
F--11-x-14-x-10-x-12-x-12^12-x-11-x-14-x-10-10-x----------------)
C--11-x-14-x-10-x-12-x-12^12-x-11-x-14-x-10-10-x-12---12-12-----)
G---9-x-12-x--8-x-10-x-10^10-x--9-x-12-x--8--8-x-10---10-10-----)
D-----------------------------------------------------10-10-10--)

HARMONICS Slide your finger from 4th fret to 3rd fret.

D--------------------------------------------------------------------------------)
A--------------------------------------------------------------------------------)
F--------------------------------------------------------------------------------)
C--------------------------------------------------------------------------------)
G-4-------4--------4-------4-------4-------4-------4--------4----4-4-4-4-3-3-3---)
D----4-4-----4-4-----4-4-----4-4----4-4-4-----4-4-----4-4-----4-4----------------)
Related for Communion tab