Guitaretab - guitar tabs
Song name
# A B C D E F G H I J K L M N O P Q R S T U V W X Y Z

Killing Joke - Gathering tab

POSTED BY ANTHONY-TABAZAN@NETCOURRIER.COM

THE GATHERING. Album: Fire Dances (1983)
Updated : Feb. 06 2006

RIFF 1 (main/verses) Let ring... A-7=middlefinger, F-8=ringfinger, C-6 & G-6=forefinger

D--------------------------------|
A------7-------------------------|
F-----------8---------8--------8-|
C--6-----6---------0------0------|
G--------------6------------6----|
D--------------------------------|

RIFF 2 (Break 1) Let ring. ( )=played somtimes.
[ Tab from: http://www.guitaretab.com/k/killing-joke/142832.html ]
D--------------------------------------------|
A--------------------------------------------|
F-----4----3----3--------8---9-------16---15-|
C--------------------------------------------|
G--------------------------------------------|
D--3-----0---2-----0--7---7-----0-14---14----|


RIFF 3 (Chorus) Let ring

D-----0---------------------|
A---------------------------|
F----------6---6---6--6--0-|
C--8-----8---8---8---8----8-|
G-------------------------6-|
D---------------------------|

RIFF 4 (Break 2) Let ring Played before last verse.

D-----------------------------|
A-----------------------------|
F--8------8------8------8-----|
C----0------0------0------0---|
G------6------6------6------6-|
D-----------------------------|

POSTED BY ANTHONY-TABAZAN@NETCOURRIER.COM
Related for Gathering tab