Song name
# A B C D E F G H I J K L M N O P Q R S T U V W X Y Z

Killing Joke - Requiem tab

[REQUIEM. Album : Killing Joke (1980).
As played currently live, a nice VARIATION of the main riff.
Let ring on all notes…
h = hammer-on p = pull-off.

D--------------------------------------------------|
A-----2h4p2---2------------------------------------|
F-----------4---4p2h4-2--------------0---------0---|
C---2-------------------4-2p0----------------------|
G-0-------------------------------4---------5------|
D------------------------------2---------3---------|

Can also be played like this…
D-----------------------------------0---------0---|
A-----2h4p2---2-----------------------0---------0-|
F-----------4-----2h4p2---------------------------|
C---2-----------4--------4-2-0--------------------|
G-0-------------------------------4---------5-----|
D------------------------------2---------3--------|

Or like this…
D--------------------------------------------0---|
A-----2h4p2---2---------------------0---------0--|
F-----------4---4p2h4-2---------------0--------0-|
C---2-------------------4-2-0--------------------|
G-0-------------------------------4---------5----|
D------------------------------2---------3-------|


Live Geordie plays the main riff (first part) on the 14th case.
You can alternate the second part of it by the different ways.
Let ring on all notes…

D--------------------------------------------|
A-------16-14--------------------------------|
F-14-14-14-14-16-14--------------0---------0-|
C-14-14-14-14-14-14-16-14--------------------|
G--0--0--0-----0-----0--0-----4---------5----|
D--------------------------2---------3-------|




You can play the second part of this riff from different ways that all sounds pretty good.
You can play a lot of variations playing the little F-A-D open strings…
Let ring on all notes…

D-------0---------------|-------------------0----|
A---------0-----------0-|------0-------------0---|
F-------------------0---|--------0------------0--|
C-----------------------|------------------------|
G----4-----------5------|----4-----------5-------|
D-2-----------3---------|-2-----------3----------|


Tap to rate this tab
 
# A B C D E F G H I J K L M N O P Q R S T U V W X Y Z