Song name
# A B C D E F G H I J K L M N O P Q R S T U V W X Y Z

Killswitch Engage - Prelude tab

band: killswitch engage
song: prelude
album:killswitch engage
     tabber:dicer
     e-mail:dicer4@msn.com

these are the riffs in oreder from first riff to last riff, i didnt bother to name them.

d|--------------------------------------------------|
a|--------------------------------------------------|
f|--------------------------------------------------|
c|-7\5/7--------------------------7\5/7-------------|
g|-5\3/5-000000000000000000000000-5\3/5-00000000----|
c|-------000000000000000000000000-------00000000----|
pm       ........................       ........

d|------------------------------|
a|------------------------------|
f|------------------------------|
c|---77---77---7---77-----------|
g|-0-55-0-55-0-5-0-55-//////----|
c|-0----0----0---0----//////----|
pm .    .    .   .

d|-------------------------------------|
a|-------------------------------------|
f|-------------------------------------|
c|-7\5/7-----5----7----3---------------|
g|-5\3/5-000-3-00-5-00-1---------------|
c|-------000---00---00-----------------|
pm       ...   ..   ..

d|-----------------------------------------------------|
a|-----------------------------------------------------|
f|-----------------------------------------------------|
c|-7////--------5-----3-----7-------5-----3---10-8-7---|
g|-5////--00000-3-000-1-000-5-00000-3-000-1-0-8--6-5---|
c|--------00000---000---000---00000---000---0----------|
pm        .....   ...   ...   .....   ...   .

you can choose to play these as power choreds or you can just play them like this
d|----------------------------------------|
a|----------------------------------------|
f|-55555-5/777/8888--55555-8-7-5-5/6-6\3--|
c|-xxxxx-x/xxx/xxxx--xxxxx-x-x-x-x/x-x\x--|
g|-33333-3/555/6666--33333-6-5-3-3/4-4\1--|
c|----------------------------------------|

d|----------|
a|----------|
f|----------|
c|----------|
g|-10-7-5-7-|
c|-10-7-5-7-|








Tap to rate this tab
 
# A B C D E F G H I J K L M N O P Q R S T U V W X Y Z