Guitaretab - guitar tabs
Song name
# A B C D E F G H I J K L M N O P Q R S T U V W X Y Z

Killswitch Engage - Arms Of Sorrow tab

-----------------------------------------------------------------------------
                   The Arms of Sorrow  Killswitch Engage
-----------------------------------------------------------------------------
Tabbed by: Shock J
Email: jrkurth@yahoo.com

Tuning: Drop C (C G C F A D)

Intro
Guitar 1
D|--------------------------------------------------------------------------|
A|------3---------------1---------------3---------------3-------------------|
F|--0-------0---0---2-------2---2---3-------3---3---2-------2---2-----------|
C|1---1---1---1---3---3---3---3---5---5---5---5---0---0---0---0-------------|
G|--------------------------------------------------------------------------|
C|--------------------------------------------------------------------------|

D|--------------------------------------------------------------------------|
A|------3---------------1---------3-----------------------------------------|
F|--0-------0---0---2-------2---2-0-----------------------------------------|
C|1---1---1---1---3---3---3---3---------------------------------------------|
G|--------------------------------------------------------------------------|
C|--------------------------------------------------------------------------|

Verse
Guitar 1
D|--------------------------------------------------------1-----------------|
A|------------------------------------------------3-------------------------|
F|3----3----3----3----3----3------3----3----3--------3-------3--------------|
C|3----3----3----3----3----3------3----3----3-----------3-------3-----------|
G|--55---55---55---55---55---55-0---11---11---11-1--------------------------|
C|--55---55---55---55---55---55-0---11---11---11-1--------------------------|

D|--------------------------------------------------------1-----------------|
A|------------------------------------------------3-------------------------|
F|3----3----3----3----3----3------3----3----3--------3-------3--------------|
C|3----3----3----3----3----3------3----3----3-----------3-------3-----------|
G|--55---55---55---55---55---55-0---11---11---11-1--------------------------|
C|--55---55---55---55---55---55-0---11---11---11-1--------------------------|

Guitar 2
D|--------------------------------------------------------------------------|
A|--------------------------------------------------------------------------|
F|--------------------------------------------------------------------------|
C|5-----------------------------0-1---------------1-------3-----------------|
G|5-----------------------------0-1---------------1-------3-----------------|
C|5-----------------------------0-1---------------1-------3-----------------|

D|--------------------------------------------------------------------------|
A|--------------------------------------------------------------------------|
F|--------------------------------------------------------------------------|
C|5-----------------------------0-1---------------1-------3-----------------|
G|5-----------------------------0-1---------------1-------3-----------------|
C|5-----------------------------0-1---------------1-------3-----------------|

Guitar 1
D|--------------------------------------------------------1-----------------|
A|------------------------------------------------3-------------------------|
F|3----3----3----3----3----3------3----3----3--------3-------3--------------|
C|3----3----3----3----3----3------3----3----3-----------3-------3-----------|
G|--55---55---55---55---55---55-0---11---11---11-1--------------------------|
C|--55---55---55---55---55---55-0---11---11---11-1--------------------------|

D|--------------------------------------------------------1-----------------|
A|------------------------------------------------3-------------------------|
F|3----3----3----3----3----3------3----3----3--------3-------3--------------|
C|3----3----3----3----3----3------3----3----3-----------3-------3-----------|
G|--55---55---55---55---55---55-0---11---11---11-1--------------------------|
C|--55---55---55---55---55---55-0---11---11---11-1--------------------------|

Guitar 2
D|--------------------------------------------------------------------------|
A|--------------------------------------------------------------------------|
F|3----3----3----3----3----3------3----3----3-----3-------------------------|
C|3----3----3----3----3----3------3----3----3-----3-------------------------|
G|--55---55---55---55---55---55-0---11---11---11-1--------------------------|
C|--55---55---55---55---55---55-0---11---11---11-1--------------------------|

D|--------------------------------------------------------------------------|
A|--------------------------------------------------------------------------|
F|3----3----3----3----3----3------3----3----3-----3-------------------------|
C|3----3----3----3----3----3------3----3----3-----3-------------------------|
G|--55---55---55---55---55---55-0---11---11---11-1--------------------------|
C|--55---55---55---55---55---55-0---11---11---11-1--------------------------|

Guitar 1 and 2
D|--------------------------------------------------------------------------|
A|--------------------------------------------------------------------------|
F|--------------------------------------------------------------------------|
C|0001--0001--00010000--0-0000--0-0001--0001--00001--0--1--4--3--1----------|
G|000---000---000-0000--0-0000--0-000---000---00001--0--1--4--3--1----------|
C|000---000---000-0000--0-0000--0-000---000---00001--0--1--4--3--1----------|

D|--------------------------------------------------------------------------|
A|--------------------------------------------------------------------------|
F|--------------------------------------------------------------------------|
C|0001--0001--00010000--0-0000--0-0001--0001--00001--0--1--3----------------|
G|000---000---000-0000--0-0000--0-000---000---00001--0--1--3----------------|
C|000---000---000-0000--0-0000--0-000---000---00001--0--1--3----------------|

Guitar 1
D|------------------------1-------------------------------1-----------------|
A|----------------3-------------------------------3-------------------------|
F|3----3----3--------3-------3----3----3----3--------3-------3--------------|
C|3----3----3-----------3-------3-3----3----3-----------3-------3-----------|
G|--55---55---55-5------------------11---11---11-1--------------------------|
C|--55---55---55-5------------------11---11---11-1--------------------------|

D|------------------------1-------------------------------------------------|
A|----------------3---------------------------------------------------------|
F|3----3----3--------3-------3----3----3----3-----3-------------------------|
C|3----3----3-----------3-------3-3----3----3-----3-------------------------|
G|--55---55---55-5------------------11---11---11-1--------------------------|
C|--55---55---55-5------------------11---11---11-1--------------------------|

Guitar 2
D|--------------------------------------------------------------------------|
A|--------------------------------------------------------------------------|
F|3----3----3-----3---------------3----3----3-----3-------------------------|
C|3----3----3-----3---------------3----3----3-----3-------------------------|
G|--55---55---55-5------------------11---11---11-1--------------------------|
C|--55---55---55-5------------------11---11---11-1--------------------------|

D|--------------------------------------------------------------------------|
A|--------------------------------------------------------------------------|
F|3----3----3-----3---------------3----3----3-----3-------------------------|
C|3----3----3-----3---------------3----3----3-----3-------------------------|
G|--55---55---55-5------------------11---11---11-1--------------------------|
C|--55---55---55-5------------------11---11---11-1--------------------------|

Chorus
Guitar 1
D|6--5----------5-6--5----------5-6--5----------5---------------------------|
A|------8-6--8----------8-6--8----------8-6--8------------------------------|
F|--------------------------------------------------------------------------|
C|------------------------------------------------0--0--0-0--0--0-----------|
G|------------------------------------------------0--0--0-0--0--0-----------|
C|------------------------------------------------0--0--0-0--0--0-----------|

D|6--5----------5-6--5----------5-6--5----------5---------------------------|
A|------8-6--8----------8-6--8----------8-6--8------------------------------|
F|--------------------------------------------------------------------------|
C|------------------------------------------------0--0--0-0-----------------|
G|------------------------------------------------0--0--0-0-----------------|
C|------------------------------------------------0--0--0-0-----------------|

Guitar 2
D|--------------------------------------------------------------------------|
A|--------------------------------------------------------------------------|
F|--------------------------------------------------------------------------|
C|1---------------3---------------5---------------0--0--0-0--0--0-----------|
G|1---------------3---------------5---------------0--0--0-0--0--0-----------|
C|1---------------3---------------5---------------0--0--0-0--0--0-----------|

D|--------------------------------------------------------------------------|
A|--------------------------------------------------------------------------|
F|--------------------------------------------------------------------------|
C|1---------------3---------------5---------------0--0--0-0-----------------|
G|1---------------3---------------5---------------0--0--0-0-----------------|
C|1---------------3---------------5---------------0--0--0-0-----------------|

Verse
Guitar 1 and 2
D|--------------------------------------------------------------------------|
A|--------------------------------------------------------------------------|
F|--------------------------------------------------------------------------|
C|0001--0001--00010000--0-0000--0-0001--0001--00001--0--1--4--3--1----------|
G|000---000---000-0000--0-0000--0-000---000---00001--0--1--4--3--1----------|
C|000---000---000-0000--0-0000--0-000---000---00001--0--1--4--3--1----------|

D|--------------------------------------------------------------------------|
A|--------------------------------------------------------------------------|
F|--------------------------------------------------------------------------|
C|0001--0001--00010000--0-0000--0-0001--0001--00001--0--1--3----------------|
G|000---000---000-0000--0-0000--0-000---000---00001--0--1--3----------------|
C|000---000---000-0000--0-0000--0-000---000---00001--0--1--3----------------|

Guitar 1
D|------------------------1-------------------------------1-----------------|
A|----------------3-------------------------------3-------------------------|
F|3----3----3--------3-------3----3----3----3--------3-------3--------------|
C|3----3----3-----------3-------3-3----3----3-----------3-------3-----------|
G|--55---55---55-5------------------11---11---11-1--------------------------|
C|--55---55---55-5------------------11---11---11-1--------------------------|

D|------------------------1-------------------------------------------------|
A|----------------3---------------------------------------------------------|
F|3----3----3--------3-------3----3----3----3-----3-------------------------|
C|3----3----3-----------3-------3-3----3----3-----3-------------------------|
G|--55---55---55-5------------------11---11---11-1--------------------------|
C|--55---55---55-5------------------11---11---11-1--------------------------|

Guitar 2
D|--------------------------------------------------------------------------|
A|--------------------------------------------------------------------------|
F|3----3----3-----3---------------3----3----3-----3-------------------------|
C|3----3----3-----3---------------3----3----3-----3-------------------------|
G|--55---55---55-5------------------11---11---11-1--------------------------|
C|--55---55---55-5------------------11---11---11-1--------------------------|
[ Tab from: http://www.guitaretab.com/k/killswitch-engage/80153.html ]
D|--------------------------------------------------------------------------|
A|--------------------------------------------------------------------------|
F|3----3----3-----3---------------3----3----3-----3-------------------------|
C|3----3----3-----3---------------3----3----3-----3-------------------------|
G|--55---55---55-5------------------11---11---11-1--------------------------|
C|--55---55---55-5------------------11---11---11-1--------------------------|

Chorus
Guitar 1
D|6--5----------5-6--5----------5-6--5----------5---------------------------|
A|------8-6--8----------8-6--8----------8-6--8------------------------------|
F|--------------------------------------------------------------------------|
C|------------------------------------------------0--0--0-0--0--0-----------|
G|------------------------------------------------0--0--0-0--0--0-----------|
C|------------------------------------------------0--0--0-0--0--0-----------|

D|6--5----------5-6--5----------5-6--5----------5---------------------------|
A|------8-6--8----------8-6--8----------8-6--8------------------------------|
F|--------------------------------------------------------------------------|
C|------------------------------------------------0-0-0-0-0-0-0-------------|
G|------------------------------------------------0-0-0-0-0-0-0-------------|
C|------------------------------------------------0-0-0-0-0-0-0-------------|

Guitar 2
D|--------------------------------------------------------------------------|
A|--------------------------------------------------------------------------|
F|--------------------------------------------------------------------------|
C|1---------------3---------------5---------------0--0--0-0--0--0-----------|
G|1---------------3---------------5---------------0--0--0-0--0--0-----------|
C|1---------------3---------------5---------------0--0--0-0--0--0-----------|

D|--------------------------------------------------------------------------|
A|--------------------------------------------------------------------------|
F|--------------------------------------------------------------------------|
C|1---------------3---------------5---------------0-0-0-0-0-0-0-------------|
G|1---------------3---------------5---------------0-0-0-0-0-0-0-------------|
C|1---------------3---------------5---------------0-0-0-0-0-0-0-------------|

Interlude
Guitar 1
D|--------------------------------------------------------------------------|
A|--------------------------------------------------------------------------|
F|--------------------------------------------------------------------------|
C|h7p0h3p0h7p0h7p0h3p0h7p0h7p0h3p0h7p0h3p0h7p0h7p0h3p0h7p0h7p0h3p0----------|
G|--------------------------------------------------------------------------|
C|--------------------------------------------------------------------------|

D|--------------------------------------------------------------------------|
A|--------------------------------------------------------------------------|
F|--------------------------------------------------------------------------|
C|h10p0h7p0h10p0h10p0h7p0h10p0h10p0h7p0h10p0h7p0h10p0h10p0h7p0h10p0h10p0h7p0|
G|--------------------------------------------------------------------------|
C|--------------------------------------------------------------------------|

D|--------------------------------------------------------------------------|
A|--------------------------------------------------------------------------|
F|--------------------------------------------------------------------------|
C|h8p0h5p0h8p0h8p0h5p0h8p0h8p0h5p0h8p0h5p0h8p0h8p0h5p0h8p0h8p0h5p0----------|
G|--------------------------------------------------------------------------|
C|--------------------------------------------------------------------------|

D|--------------------------------------------------------------------------|
A|--------------------------------------------------------------------------|
F|--------------------------------------------------------------------------|
C|h7p0h3p0h7p0h7p0h3p0h7p0h7p0h3p0h5p0h2p0h5p0h5p0h2p0h5p0h5p0h2p0----------|
G|--------------------------------------------------------------------------|
C|--------------------------------------------------------------------------|

Guitar 2
D|--------------------------------------------------------------------------|
A|--------------------------------------------------------------------------|
F|--------------------------------------------------------------------------|
C|8-------------------------------1-----------------------------------------|
G|8-------------------------------1-----------------------------------------|
C|8-------------------------------1-----------------------------------------|

D|--------------------------------------------------------------------------|
A|--------------------------------------------------------------------------|
F|--------------------------------------------------------------------------|
C|0-------------------------------7-----------------------------------------|
G|0-------------------------------7-----------------------------------------|
C|0-------------------------------7-----------------------------------------|

Guitar 1
D|--------------------------------------------------------------------------|
A|--------------------------------------------------------------------------|
F|--------------------------------------------------------------------------|
C|h7p0h3p0h7p0h7p0h3p0h7p0h7p0h3p0h7p0h3p0h7p0h7p0h3p0h7p0h7p0h3p0----------|
G|--------------------------------------------------------------------------|
C|--------------------------------------------------------------------------|

D|--------------------------------------------------------------------------|
A|--------------------------------------------------------------------------|
F|--------------------------------------------------------------------------|
C|h10p0h7p0h10p0h10p0h7p0h10p0h10p0h7p0h10p0h7p0h10p0h10p0h7p0h10p0h10p0h7p0|
G|--------------------------------------------------------------------------|
C|--------------------------------------------------------------------------|

D|--------------------------------------------------------------------------|
A|--------------------------------------------------------------------------|
F|--------------------------------------------------------------------------|
C|h8p0h5p0h8p0h8p0h5p0h8p0h8p0h5p0h8p0h5p0h8p0h8p0h5p0h8p0h8p0h5p00000000---|
G|----------------------------------------------------------------0000000---|
C|----------------------------------------------------------------0000000---|

Guitar 2
D|--------------------------------------------------------------------------|
A|--------------------------------------------------------------------------|
F|--------------------------------------------------------------------------|
C|0000000---00000---00000---------3333333---33333---33333-------------------|
G|0000000---00000---00000---------3333333---33333---33333-------------------|
C|0000000---00000---00000---------3333333---33333---33333-------------------|

D|--------------------------------------------------------------------------|
A|--------------------------------------------------------------------------|
F|--------------------------------------------------------------------------|
C|1111111---11111---11111---------0000000-----------------------------------|
G|1111111---11111---11111---------0000000-----------------------------------|
C|1111111---11111---11111---------0000000-----------------------------------|

Guitar 1
D|--------------------------------------------------------------------------|
A|------3---------------1--------------3------------------------------------|
F|--0-------0---0---2-------2---2---3------3---3----------------------------|
C|1---1---1---1---3---3---3---3---5---5--5---5---0--0--0-0--0--0------------|
G|-----------------------------------------------0--0--0-0--0--0------------|
C|-----------------------------------------------0--0--0-0--0--0------------|

Guitar 2
D|--------------------------------------------------------------------------|
A|--------------------------------------------------------------------------|
F|--------------------------------------------------------------------------|
C|-----------------------------------------------0--0--0-0--0--0------------|
G|-----------------------------------------------0--0--0-0--0--0------------|
C|-----------------------------------------------0--0--0-0--0--0------------|

Chorus
Guitar 1
D|6--5----------5-6--5----------5-6--5----------5---------------------------|
A|------8-6--8----------8-6--8----------8-6--8------------------------------|
F|--------------------------------------------------------------------------|
C|------------------------------------------------0-0-0-0-0-0-0-------------|
G|------------------------------------------------0-0-0-0-0-0-0-------------|
C|------------------------------------------------0-0-0-0-0-0-0-------------|

Guitar 2
D|--------------------------------------------------------------------------|
A|--------------------------------------------------------------------------|
F|--------------------------------------------------------------------------|
C|1---------------3---------------5---------------0-0-0-0-0-0-0-------------|
G|1---------------3---------------5---------------0-0-0-0-0-0-0-------------|
C|1---------------3---------------5---------------0-0-0-0-0-0-0-------------|

Outro
Guitar 1 and 2
D|--------------------------------------------------------------------------|
A|--------------------------------------------------------------------------|
F|--------------------------------------------------------------------------|
C|1---------------3---------------5---------------0-------------------------|
G|1---------------3---------------5---------------0-------------------------|
C|1---------------3---------------5---------------0-------------------------|

D|--------------------------------------------------------------------------|
A|--------------------------------------------------------------------------|
F|--------------------------------------------------------------------------|
C|1---------------3---------------5---------------0-------0-0-0-0-----------|
G|1---------------3---------------5---------------0-------0-0-0-0-----------|
C|1---------------3---------------5---------------0-------0-0-0-0-----------|

Guitar 1 (Repeat and fade out)
D|--------------------------------------------------------------------------|
A|--------------------------------------------------------------------------|
F|--------------------------------------------------------------------------|
C|h8p0h5p0h8p0h8p0h5p0h8p0h8p0h5p0h7p0h3p0h7p0h7p0h3p0h7p0h7p0h3------------|
G|--------------------------------------------------------------------------|
C|--------------------------------------------------------------------------|

D|--------------------------------------------------------------------------|
A|--------------------------------------------------------------------------|
F|--------------------------------------------------------------------------|
C|h8p0h5p0h8p0h8p0h5p0h8p0h8p0h5p0h7p0h3p0h7p0h7p0h3p0h7p0h7p0h3------------|
G|--------------------------------------------------------------------------|
C|--------------------------------------------------------------------------|

Guitar 2 (Repeat and fade out)
D|--------------------------------------------------------------------------|
A|--------------------------------------------------------------------------|
F|--------------------------------------------------------------------------|
C|1-------------------------------3-----------------------------------------|
G|1-------------------------------3-----------------------------------------|
C|1-------------------------------3-----------------------------------------|

D|--------------------------------------------------------------------------|
A|--------------------------------------------------------------------------|
F|--------------------------------------------------------------------------|
C|5-------------------------------0-----------------------------------------|
G|5-------------------------------0-----------------------------------------|
C|5-------------------------------0-----------------------------------------|

									
| /  slide up
| \  slide down
| h  hammer-on
| p  pull-off
| ~  vibrato
| +  harmonic
| x  Mute note
=============================================================================
Related for Arms Of Sorrow tab