Song name
# A B C D E F G H I J K L M N O P Q R S T U V W X Y Z

Killswitch Engage - Holy Diver tab

1------------------------------------10-12-13-12h13p12p10--10--------------1
1---13B-----------------------------x--------------------13--13B15~--------1
1---12B------10h12p10---10~--------x---------------------------------------1
1--------------------12----------12----------------------------------------1
1--------------------------------------------------------------------------1
1--------------------------------------------------------------------------1


1---10---10-12-13--12-13-15--13-15-17--15-17-18-18B20----17-----17~--------1
1-----------------------------------------------------------15-------------1
1--------------------------------------------------------------------------1
1--------------------------------------------------------------------------1
1--------------------------------------------------------------------------1
1--------------------------------------------------------------------------1

Sweepy Part(kind of)

1-------13-17p13------------------------1
1-----15--------15----------------------1
1---14------------14----9h10p9----------1
1-----------------------------12p10h12--1
1---------------------------------------1
1---------------------------------------1


Next Part
1--------------------------------------------------------------------------1
1----------------------------------13*B15R10--13-10-12-10--10--------------1
1---12B--12BR10----12*B--12*BR10-------------------------13--13-10-12-10---1
1--------------12---------------12--------------------------------------12-1
1--------------------------------------------------------------------------1
1--------------------------------------------------------------------------1



1--------------------------------------------------------------------------1
1-----------------------------------------15-----15-----15-----15-----15---1
1---10-13-12-10-10-12-13-12-12-10h12p10-----14-13--14-13--14-13--14-13--14-1
1--------------12----------------------12~---------------------------------1
1--------------------------------------------------------------------------1
1--------------------------------------------------------------------------1



1------------------------------------------------------1
1---15--------15B17R15-13-15-----13-13-----------------1
1-----14-13-14--------------14-14-----10-10-9-9-10p9---1
1------------------------------------------------------1
1------------------------------------------------------1
1------------------------------------------------------1



Harmony(Left ear)
1---5h6p5------5h6p5-----5h8p5----------1
1--------8-6-5------8-6-5-----8-6-------1
1-------------7----------7--------------1    X4
1---------------------------------------1
1---------------------------------------1
1---------------------------------------1

Harmony(Right ear)
1---8h10p8---------8h10p8----------8h12p8--------1
1---------11-10-8--------11-10-8---------11-10---1
1----------------10--------------10--------------1   X4
1------------------------------------------------1
1------------------------------------------------1
1------------------------------------------------1
Tap to rate this tab
 
# A B C D E F G H I J K L M N O P Q R S T U V W X Y Z