Kings Of Leon - Mary chords

Highlighted       Show chord diagrams
Intro riff - 

G|-----------------|
D|--/9---6--4--6---|
A|-----------------|
E|-----------------|

Bluesy triplets! (I've just realised the bit below, each part should be twice as long)

         B                 B              E              F#  

e|----------------|----------------|--------------|--------------|
B|----------------|----------------|--------------|--------------|
G|----------------|----------------|--------------|--------------|
D|--9--9--9---9---|--9--9--9---9---|--2--2--2--2--|--4--4--4--4--|
A|--9--9--11--11--|--9--9--11--11--|--2--2--4--4--|--4--4--6--6--|
E|--7--7--7---7---|--7--7--7---7---|--0--0--0--0--|--2--2--2--2--|


Intro - B, B, E, F# 

I don't know the lyrics....

Verse

B
   Mary, if you want it
      E        F#
I'll wait, my ride
B
  I'll be here on the corner
      E        F#
Just passin', time

Pre-Chorus

Ebm      Ebm    Ebm       Ebm
    No I won't,     Never once,
     F#
Make you cryyyy                         x2, second time stop on F#



and so on, please rate!

peace x
Tap to rate this tab
 
# A B C D E F G H I J K L M N O P Q R S T U V W X Y Z