Song name
# A B C D E F G H I J K L M N O P Q R S T U V W X Y Z

Kings Of Leon - Mary tab

Kings Of Leon - Mary (Guitar Solo)

http://www.youtube.com/watch?v=sJQNwsCQeQk

Any comments/questions post to my Youtube video above

(b) - Bend
(r) - Release bend
~ - Vibrato
/ - Slide up
\ - Slide down


E|-7-7-7-7-7-7--------7--------7--------------------7-------------------------------------|
B|-7-7-7-7-7-7--------7--------7--------------------7---10(b)14---------14-14-14-14-14-14-|
G|-------------9(b)11---9(b)11----9--7--9(b)11--------------------------------------------|
D|----------------------------------------------------------------------------------------|
A|----------------------------------------------------------------------------------------|
E|----------------------------------------------------------------------------------------|

E|-----------------------------------------------7--10--9--10(b)12~~---------------|
B|--10(b)12--10(b)12(r)10----7--9--7--10(b)12~~-----------------------7--10--9--10-|
G|---------------------------------------------------------------------------------|
D|---------------------------------------------------------------------------------|
A|---------------------------------------------------------------------------------|
E|---------------------------------------------------------------------------------|

E|-------------------------------------------------------------------------------|
B|-7--------10--------10--------10------10----10----10----10----10----10------10-|
G|----9/11------9/11------9/11------9/11--9/11--9/11--9/11--9/11--9/11--9/11-----|
D|-------------------------------------------------------------------------------|
A|-------------------------------------------------------------------------------|
E|-------------------------------------------------------------------------------|


E|---------------------------------------------------------------------------|
B|-----10----10----10----10------10------------------------------------------|
G|-9/11--9/11--9/11--9/11--9/11------9--7--9--9(b)11--11(r)9-----------------|
D|------------------------------------------------------------7--9(b)11----7-|
A|---------------------------------------------------------------------------|
E|---------------------------------------------------------------------------|


E|-----------------------7-7-----------|
B|-----------------------7-7-----------|
G|------------7--9(b)11-------9(b)11~~-|
D|------7--9---------------------------|
A|-7/9---------------------------------|
E|-------------------------------------|
Tap to rate this tab
 
# A B C D E F G H I J K L M N O P Q R S T U V W X Y Z