Song name
# A B C D E F G H I J K L M N O P Q R S T U V W X Y Z

Kings Of Leon - Bucket tab

Help us improve GuitareTab! Take a short survey!
Kings of Leon: The Bucket

This is a pretty good set up for the lead guitar

The inrto rythm isnt right but the notes are (i think), so you'll have to listen to the 
to find that out.

Intro                                              R = let chord ring
E|--------------|--------------|--------------|
B|-12-10----10--|-12-10----10--|-12-10--------|
G|-------11-----|-------11-----|-------11-----|
D|--------------|--------------|--------------|
A|--------------|--------------|--------------|
E|--------------|--------------|--------------|

E|------------|------------|------------|
B|------------|------------|------------|
G|-11-9----9--|-11-9----9--|-11-9-------|
D|------11----|------11----|------11----|
A|------------|------------|------------|
E|------------|------------|------------|

E|-----------|-----------|-----------|
B|-----------|-----------|-----------|
G|-9-7---7---|-9-7---7---|-9-7---7---|
D|-----9-----|-----9-----|-----9-----|
A|-----------|-----------|-----------|
E|-----------|-----------|-----------|

E|-----------|-----------|-----------|
B|-----------|-----------|-----------|
G|-9-7---7---|-9-7---7---|-9-7-------|
D|-----9-----|-----9-----|-----9-----|
A|-----------|-----------|-----------|
E|-----------|-----------|-----------|

Verse
x2
E|--------|--------|--------|--------|
B|--------|--------|--------|--------|
G|--------|--------|--------|--------|
D|77777777|77777777|--------|--------|
A|55555555|55555555|77777777|77777777|
E|--------|--------|55555555|55555555|

E|--------|--------|--------|--------|
B|--------|--------|--------|--------|
G|--------|--------|--------|--------|
D|--------|--------|--------|--------|
A|55555555|55555555|55555555|55555555|
E|33333333|33333333|33333333|33333333|





Chorus
x2
  R                 R
E|0-------|--------|0-------|--------|
B|0-------|--------|2-------|--------|
G|0-------|--------|2-------|--------|
D|2-------|--------|2-------|--------|
A|2-------|--------|0-------|--------|
E|0-------|--------|--------|--------|

E|14-------|-14------|14-------|-14------|
B|---15----|----15---|---15----|----15---|
G|------14-|------14-|------14-|------14-|
D|---------|---------|---------|---------|
A|---------|---------|---------|---------|
E|---------|---------|---------|---------|

Verse

Chorus

Repeat Intro

Solo/Outro
E|14-------|-14------|14-------|-14------|
B|---15----|----15---|---12----|----12---|
G|------14-|------14-|------14-|------14-|
D|---------|---------|---------|---------|
A|---------|---------|---------|---------|
E|---------|---------|---------|---------|

E|12-------|-12------|12-------|-12------|
B|---15----|----15---|---15----|----15---|
G|------12-|------12-|------12-|------12-|
D|---------|---------|---------|---------|
A|---------|---------|---------|---------|
E|---------|---------|---------|---------|
  R                 R
E|0-------|--------|0-------|--------|2-------|
B|0-------|--------|2-------|--------|3-------|
G|0-------|--------|2-------|--------|2-------|
D|2-------|--------|2-------|--------|0-------|
A|2-------|--------|0-------|--------|0-------|
E|0-------|--------|--------|--------|--------|
Related for Bucket tab