Song name
# A B C D E F G H I J K L M N O P Q R S T U V W X Y Z

Kino - Bezdelnik tab

Intro
     Repeat 3 times
E|-2-2-2--2--2-2--2-2--2-2-2--2-2--0----0--0--0-0----------------|
B|-3-3-3--3--5-3--5-3--5-3-3--5-3--2----2--3--3-2----------------|
G|-2-2-2--2--2-2--2-2--2-2-2--2-2--2----2--2--2-2----------------|
D|-4-4-4--4--4-4--4-4--4-4-4--4-4--2----2--2--2-2----------------|
A|-2-2-2--2--2-2--2-2--2-2-2--2-2--0----0--0--0-0----------------|
E|---------------------------------------------------------------|

E|-2-2-2--2--2-2--2-2--2-2-2--2-2---/5--3--0^3--------|
B|-3-3-3--3--5-3--5-3--5-3-3--5-3---/5--3--0^3--3/5-3-|
G|-2-2-2--2--2-2--2-2--2-2-2--2-2---------------2/4-2-|
D|-4-4-4--4--4-4--4-4--4-4-4--4-4---------------------|
A|-2-2-2--2--2-2--2-2--2-2-2--2-2---------------------|
E|----------------------------------------------------|
Tap to rate this tab
# A B C D E F G H I J K L M N O P Q R S T U V W X Y Z