Song name
# A B C D E F G H I J K L M N O P Q R S T U V W X Y Z

Kino - Legenda tab

E|------0-2-----5-2---------0---------0-2------|
B|-2-3-3-3-3-------3-----2--2---2-3-3-3-3--3-2-|
G|--------2---2-------2-4-2---2---------2---2--|
D|-------------------------2-----2-------------|
A|---------------------------------------------|
E|---------------------------------------------|

E|-5-2---2-2------2-3-3-------3----|
B|--3-2--2----2--3---3----3--2-2-0-|
G|-------2---2--2---4-----4-4---2--|
D|---------4-----4-----5------5----|
A|----------4-----------5----------|
E|----------2-----------3----------|
Tap to rate this tab
# A B C D E F G H I J K L M N O P Q R S T U V W X Y Z