Song name
# A B C D E F G H I J K L M N O P Q R S T U V W X Y Z

Kjwan - Pintura tab

hi to all platinumianz ( batch 2006)
hi to all it-1b net web...
HELLO BATAAN!

TABORAMER: -AYEN- MALIXI
ARTIST: kjwan rulezzz!
SONG: PINTURA









this is the real one... hope you'll like it



intro:

e|-------------------------------------------|
B|-------------------------------------------|
G|-------------------------------------------|
D|-------------------------------------------|
A|--5-3-------654----------------------------|
E|-3---5-3-0-4----2--------------------------|

e|-------------------------------------------|
B|-------------------------------------------|
G|-------------------------------------------|
D|-------------------------------------------|
A|--5-3-------654----------------------------|
E|-3---5-3-0-4---5-4--2----------------------|

e|-------------------------------------------|
B|-------------------------------------------|
G|-------------------------------------------|
D|-------------------------------------------|
A|--5-3-------654----------------------------|
E|-3---5-3-0-4---5--/12----------------------|


e|-------------------------------------------|
B|-------------------------------------------|
G|-------------------------------------------|
D|-------------------------------------------|
A|--5-3-------654----------------------------|
E|-3---5-3-0-4---5-4--2----------------------|




VERSES:
           G              F
e|--------------------------------------------|
B|--------------------------------------------|
G|--------------------------------------------|    
D|---------5--------------3-------------------|
A|---------5--------------3-------------------|
E|---------3--------------1-------------------|
	




e|------------------------------------------|
B|----s-------------------------------------|
G|----t-------------------------------------|  
D|----o-------------------------------------|
A|----p-------------------------------------|
E|---------/12------------------------------|

RIFF BEFORE CHORUS:
e|--------------------------------------------|
B|----------------8-9-11^---------------------|
G|------------7-9-----------------------------|
D|----5-7-6-8---------------------------------|
A|-5-7----------------------------------------|
E|--------------------------------------------|



CHORUS: SAME AS INTRO TIMING NALANG POH...

FOR COMMENTS E-MAIL ME @:
WAYENMALIXI@Y.C.
RAMZA_2300@Y.C.
Tap to rate this tab
 
# A B C D E F G H I J K L M N O P Q R S T U V W X Y Z