Guitaretab - guitar tabs
Song name
# A B C D E F G H I J K L M N O P Q R S T U V W X Y Z
Home / K / Kjwan / One Look tab

Kjwan - One Look tab

One Look Tab by Kjwan
Album: 2 Step Marv
Tab by: Jing Saludes

paki rate lang poh!..
E-mail 	  :  mcruj@yahoo.com
Friendster:  mcrouge28@yahoo.com.ph

Legend:
b = bend
h = hammer on
p = pull off
Vp = up strumming with pause

Intro: G# - F#
e|-------------8-11-9-8-8-9-8-11-11-11-9-8-8-9-8-|
B|--------9-11---------------9------------9------|
G|---- 5-----------------------------------------|
D|---6--6----------------------------------------|
A|-6---------------------------------------------|
E|-----------------------------------------------|

Verse 1: G# - F#
e|-4-------------2-------------4-------------2--------|
B|-4--4----------2--2----------4--4----------2--2-----|
G|-5----5--------3----3--------5----5--------3----3---|
D|-6------6------4------4------6------6------4------4-|
A|-6-------------4-------------6-------------4--------|
E|-4-------------2-------------4-------------2--------|


Chorus: G# - F#
One look..
           VpVp    VpVp    VpVp    VpVp
        e|-4-4-----4-4-----2-2-----2-2-|
        B|-4-4-----4-4-----2-2-----2-2-|
        G|-5-5-----5-5-----3-3-----3-3-|
        D|-6-6-----6-6-----4-4-----4-4-|
        A|-6-6-----6-6-----4-4-----4-4-|
        E|-4-4-----4-4-----2-2-----2-2-|

Blowing down..
e|-4-----------------------2--2----|
B|-4----4------------------2---2---|
G|-5---5-------------------3-3--3--|
D|-6--6--------------------4-----4-|
A|-6-6---------------------4-------|
E|-4-----------------------2-------|

[ Tab from: http://www.guitaretab.com/k/kjwan/82054.html ]
And its a mystery...(light strumming)
          e|-4-4-4-4-4-4-4-4--2-2-2-2-2-2-2-2-|
          B|-4-4-4-4-4-4-4-4--2-2-2-2-2-2-2-2-|
          G|-5-5-5-5-5-5-5-5--3-3-3-3-3-3-3-3-|
          D|-6-6-6-6-6-6-6-6--4-4-4-4-4-4-4-4-|
          A|-6-6-6-6-6-6-6-6--4-4-4-4-4-4-4-4-|
          E|-4-4-4-4-4-4-4-4--2-2-2-2-2-2-2-2-|

Bridge:   A#m Ė C#



INTRO- G#        F#
Whoa whoa whoa

VERSE-
 G#         F#
I know you hate it
 G#          F#
When i say these things right in your face
  G#
But I canít lie
  F#
You know me better
 G#                                      F#
Itís cause the words inside just speak the truth



CHORUS
    G#
One look
      F#
and Iím mesmerized by your eyes
      G#                        F#
Youíre cominí like a hurricane
G
Blowing down on me

             G#
Cause itís your mystery that captures me
      F#
Iím falling in, drawing closer
And now, oh now, yeah



G#
Pardon me
 F#
Iím being honest
   G#                       F#
Cause I donít hide, I speak my mind
  G#
Things get weird
   F#
But we know better
Itís cause I know you know that I love you girl

DO CHORUS
One look
And Iím mesmerized by your eyes
Youíre cominí like a hurricane
Blowing down on me
Cause itís your mystery that captures me
Iím falling in, drawing closer
And now, oh now, yeah
Bm                D
Blowing down on me

DO CHORUS
One look
And Iím mesmerized by your eyes
Youíre cominí like a hurricane
Blowing down on me
Cause itís your mystery that captures me
Iím falling in, drawing closer
And now, oh now, yeah



Related for One Look tab