Guitaretab - guitar tabs
Song name
# A B C D E F G H I J K L M N O P Q R S T U V W X Y Z
Home / K / Klank / Disease tab

Klank - Disease tab

Band: Klank
song: disease

Tabber: John Cukras
email: riffreaper@yahoo.com

Tuning: normal

Riff 1:
E----------------------------------|
B----------------------------------|
G----------------------------------|
D----------------------------------|
A-66-66-88-88-44-44-66-66-88-------|
E-44-44-66-66-22-22-44-44-66 x's 6-|
pm.. .. .. .. .. .. .. .. ..

Riff 2:
E------------------------------------------|
B------------------------------------------|
G------------------------------------------|
D------------------------------------------|
A-777-8-10-777-8-10-777-8-10-777-5-3-------|
E-555-6-8--555-6-8--555-6-8--555-3-1 x's 4-|

Riff 1 x's 2
[ Tab from: http://www.guitaretab.com/k/klank/130696.html ]
Riff 3:
E--------------------|
B--------------------|
G--------------------|
D--------------------|
A-10-8--3--5---------|
E-8--6--1--3   x's 2-|

Riff 4:
E--------------------|
B--------------------|
G--------------------|
D--------------------|
A-88-88-66-66--------|
E-66-66-44-44  x's 4-|
pm.. .. .. ..

Riff 1 once

Riff 3 x's 4

Riff 5:
E-----------------------------------------------------------|
B-----------------------------------------------------------|
G-----------------------------------------------------------|
D-----------------------------------------------------------|
A-8888-99-10-8888-66-55---------8888-99-10-8888-66-55-------|
E-6666-77-88-6666-44-33 x's 8---6666-77-88-6666-44-33 x's 4-|
pm                              .... .. .. .... .. ..

Riff 6:
E---------------------|
B---------------------|
G---------------------|
D---------------------|
A-77-88-77-9-7--------|
E-55-66-55-7-5 x's 14-|
Related for Disease tab