Song name
# A B C D E F G H I J K L M N O P Q R S T U V W X Y Z

Klank - Scarified tab

Band: Klank
song: Scarified

Tabber: John Cukras
Email: riffreaper@yahoo.com

Tuning: C G C F A D

Riff 1:
D---------------------------------------------|
A---------------------------------------------|
F---------------------------------------------|
C---------------------------------------------|
G-000-000-000-0-0-0-000-0-0-0-000-0-0-0-------|
C-000-000-000-0-0-0-000-0-0-0-000-0-0-0 x's 8-|
pm... ... ... . . . ... . . . ... . . .

Riff 2:
D-----------------------------------|
A-----------------------------------|
F-----------------------------------|
C-----------------------------------|
G-3-6-10--3-1-00000-3-1-00000-------|
C-3-6-10--3-1-00000-3-1-00000 x's 4-|
pm            .....     .....

Riff 3:
D----------------------------------------------------------|
A----------------------------------------------------------|
F----------------------------------------------------------|
C----------------------------------------------------------|
G-3-1-0-0-0-00-3-1-0-0-0-00-3-1-0-0-0-00-7-6-5-4-5-6-------|
C-3-1-0-0-0-00-3-1-0-0-0-00-3-1-0-0-0-00-7-6-5-4-5-6 x's 2-|
pm    . . . ..     . . . ..     . . . ..

Riff 2

Riff 4:
D-------------------------------|
A-------------------------------|
F-------------------------------|
C-------------------------------|
G-3-1-00-3-1-00-3-1-00-77-------|
C-3-1-00-3-1-00-3-1-00-77 x's 4-|
pm    ..     ..     ..

Riff 3 x's 4

Riff 5:
D--------------------------------------|
A--------------------------------------|
F--------------------------------------|
C--------------------------------------|
G-1-1-3--1-1-3--1-1-3--1-7-6-4-7-------|
C-1-1-3--1-1-3--1-1-3--1-7-6-4-7 x's 4-|

Riff 1 x's 4

Riff 2

Riff 3 x's 4

Riff 5 (till end)
Tap to rate this tab
# A B C D E F G H I J K L M N O P Q R S T U V W X Y Z