Song name
# A B C D E F G H I J K L M N O P Q R S T U V W X Y Z

Klank - Time tab

Help us improve GuitareTab! Take a short survey!
Band: Klank
Song: Time

Tabber: John Cukras
Email: riffreaper@yahoo.com

Tuning: Drop D

Riff 1:
E----------------------------------------------------------|
B----------------------------------------------------------|
G----------------------------------------------------------|
D----------------------------------------------------------| x2
A-1-3-1-2----2-1-3-1-2----2-1-3-1-2----2-1-3-1-111-333-----|
D-1-3-1-2-00-2-1-3-1-2-00-2-1-3-1-2-00-2-1-3-1-------------|
pm        ..           ..           ..

Riff 2: Guitar 1        Guitar 2 (is kinda hard to hear)
E---------------|----------------------------------------------------------------------------------------|
B---------------|------6------------6------------8-----------6------------6------------6------------8----|
G---------------|----5---5---5----5---5---5----7---7---7---5---5---5----5---5---5----5---5---5----7---7--|
D---------------|--3-------3----3-------3----5-------5---3-------3----3-------3----3-------3----5-------5|
A-1--1--1--1----|----------------------------------------------------------------------------------------|
D-1--1--1--1----|----------------------------------------------------------------------------------------|

-------------------|
--------10---------|
-7----9----9---9---|
----7--------7-----| x2
-------------------|
-------------------|
Riff 1

Riff 2

Riff 1

Riff 3: 10's
E----------------------------------------|
B----------------------------------------|
G----------------------------------------|
D----------------------------------------|
A-2-1-5-4--------2-1-5-77-9-7-9-9-101010-|
D-2-1-5-4 x's 3--2-1-5-77-9-7-9-9-101010-|

Riff 1

Riff 2

Riff 1 x's 4
Related for Time tab