Song name
# A B C D E F G H I J K L M N O P Q R S T U V W X Y Z

Korn - Creep Acoustic tab

KoRn - Creep - MTV Unplugged

Tabbed by Elvisz (elvisz84@yahoo.com)
Tuning : 7 String Tuned Low to High (A D G C F a d)

Vocal: Jonathan Houseman Davis 'Hiv'
Guitar: James Randal Shaffer 'Munky'
Bass: Reginald Arvizu 'Fieldy'

Verse:
d|---5---5---5---5---5------ 9---- 9---- 9---- 9---- 9-------10----10----10----10----10-------10----10----10----10----10----|
a|---5---5---5---5---5------ 9---- 9---- 9---- 9---- 9-------10----10----10----10----10-------10----10----10----10----10----|
F|---6---6---6---6---6------10----10----10----10----10-------11----11----11----11----11-------10----10----10----10----10----|
C|-7---7---7---7---7---7-11----11----11----11----11----11-12----12----12----12----12----12-12----12----12----12----12----12-|
G|-7---7---7---7---7---7-11----11----11----11----11----11-12----12----12----12----12----12-12----12----12----12----12----12-|
D|-5---5---5---5---5---5- 9---- 9---- 9---- 9---- 9---- 9-10----10----10----10----10----10-10----10----10----10----10----10-|
A|--------------------------------------------------------------------------------------------------------------------------|

Second chorus only:
d|-0-0-0-00-0-0---4---4---4---4---4-----5---5---5---5---5-----5---5---5---5---5---|
a|-2-2-2-22-2-2---6---6---6---6---6-----7---7---7---7---7-----6---6---6---6---6---|
F|-2-2-2-22-2-2---6---6---6---6---6-----7---7---7---7---7-----7---7---7---7---7---|
C|-2-2-2-22-2-2-6---6---6---6---6---6-7---7---7---7---7---7-7---7---7---7---7---7-|
G|-0-0-0-00-0-0-4---4---4---4---4---4-5---5---5---5---5---5-5---5---5---5---5---5-|
D|--------------------------------------------------------------------------------|
A|--------------------------------------------------------------------------------|

Outro:
d|-5~-|
a|-5~-|
F|-6~-|
C|-7~-|
G|-7~-|
D|-5~-|
A|----|
Tap to rate this tab
 
# A B C D E F G H I J K L M N O P Q R S T U V W X Y Z