Song name
# A B C D E F G H I J K L M N O P Q R S T U V W X Y Z

Korn - Evolution tab

      *Song:   Evolution
      *Artist: KoRn
      *Album:  'Untitled'
      *Tuning: Drop C (CGCFAD)

      *Tabbed by: Kittymadcow

      *Note: As I promised all you lovely people of the U/G community
	     I have tabbed this song.


	     Happy playing :)


 Intro: (synth)
             ~  ~  ~~~   ~>
D |---------------------------------------------------------|
A |-15-13-10-11-15-13----10---------------------------------|
F |---------------------------------------------------------|
C |---------------------------------------------------------|
G |---------------------------------------------------------|
C |---------------------------------------------------------|

(guitar)
 PM -   -   -
D |---------------------------------------------------------|
A |---------------------------------------------------------|
F |---------------------------------------------------------|
C |-2x--2x--3x----------------------------------------------|
G |-2x--2x--3x----------------------------------------------|
C |-2x--2x--3x----------------------------------------------|

Pre-Chorus:
 PM - - -   - -   - - -   - - -   - - -   - -   - - -   - -
D |---------------------------------------------------------|
A |---------------------------------------------------------|
F |---------------------------------------------------------|
C |-3-2-2---2-2---2-2-2---2-2-2---3-3-3---3-3---3-3-3---3-3-|
G |-3-2-2---2-2---2-2-2---2-2-2---3-3-3---3-3---3-3-3---3-3-|
C |-3-2-2---2-2---2-2-2---2-2-2---3-3-3---3-3---3-3-3---3-3-|

Fill:1
 PM --- --- --  --- --- --  - -- - -- --  --- --- --
D |---------------------------------------------------------|
A |---------------------------------------------------------|
F |---------------------------------------------------------|
C |---7---7-------7---7--------9----7-------7---7-----------|
G |--9---9---9---9---9---9---10---10---8---7---7---7--------|
C |-8---8---8---7---7---7---8----8----6---5---5---5---------|

Chorus: (guitar 1)
D |---|   --------| ---|   -------| ---|   ---|   ----------
A |---|   --------| ---|   -------| ---|   ---|   ----------
F |---|   --------| ---|   -------| ---|   ---|   ----------
C |-2-| X8--0-2-0-| -5-| X8-0-2-0-| -7-| X8-2-| X8-0-2-0----
G |-2-|   --0-2-0-| -5-|   -0-2-0-| -7-|   -2-|   -0-2-0----
C |-2-|   --0-2-0-| -5-|   -0-2-0-| -7-|   -2-|   -0-2-0----

(Guitar 2)
D |---------------------------------------------------------|
A |---------------------------------------------------------|
F |---------------------------------------------------------|
C |-2-4-5--2-4-5--2-5---0-2-0-------------------------------|
G |---------------------0-2-0-------------------------------|
C |---------------------0-2-0-------------------------------|

(synth)			   []
D |----|   ---|   ---|   -----------------------------------|
A |-12-|   -9-|   -7-|   -----------------------------------|
F |-x--|   -x-|   -x-|   -----------------------------------|
C |-9--| X8-7-| X8-5-| X8-----------------------------------|
G |----|   ---|   ---|   -----------------------------------|
C |----|   ---|   ---|   -----------------------------------|


Fill:2

D |---------------------------------------------------------|
A |-15---13---10---11----8-\\\\\\-                     -----|
F |-------------------------------  back to beginning  -----|
C |-------------------------------   jump to [2] @ []  -----|
G |-------------------------------                     -----|
C |---------------------------------------------------------|

  [2]
Bridge:1
D |-----------------------------|  ----|  --- ---|  ----|  ---
A |-----------------------------|  ----|  --- ---|  -12-|  ---
F |-9-9-9-10-8--x-x-x-x-x-x-x-x-|  -14-|  -10 -x-|  -x--|  -10
C |-x-x-x-x--x--x-x-x-x-x-x-x-x-|X2-x--|X4-x- -x-|X8-9--|x4-x-
G |-7-7-7-8--6--x-x-x-x-x-x-x-x-|  -12-|  -8- -x-|  ----|  -8-
C |-----------------------------|  ----|  --- ---|  ----|  ---

Bridge:2
 PM- - -  - - -  - - -  - - -  - - -  - - -   - - -  - - -
D |---------------------------------------------------------|
A |---------------------------------------------------------|
F |---------------------------------------------------------|
C |---------------------------------------------------------|
G |---------------------------------------------------------|
C |-1/2-2--1/4-4--1/2-2--1/4-4--5\4-4--5\1-1--5\4-4--5\1-1--|

Bridge:3
 PM- - - - - - - - -      - - - - - - - - - - -
D |-------------------|  -----------------------|  ---------|
A |-------------------|  -----------------------|  ---------|
F |-------------------|  -----------------------|  ---------|
C |-------------------|X2-----------------------|X2---------|
G |-------------------|  -----------------------|  ---------|
C |-1/2-2\1/4-4-4-2-4-|  -5\4-4/5\2-2-2-2-2-1-1-|  ---------|

Bridge:4
D |-------------------|  ---------------------|  -----------|
A |-------------------|  ---------------------|  -----------|
F |-------------------|  ---------------------|  -----------|
C |-0/1-1\0/3-3-3-1-3-|X2-4\3-3/4\1-1-1-1-0-0-|X2-----------|
G |-0/1-1\0/3-3-3-1-3-|  -4\3-3/4\1-1-1-1-0-0-|  -----------|
C |-0/1-1\0/3-3-3-1-3-|  -4\3-3/4\1-1-1-1-0-0-|  -----------|

Chorus: (guitar 1)
D |---|   --------| ---|   -------| ---|   ---|   ----------
A |---|   --------| ---|   -------| ---|   ---|   ----------
F |---|   --------| ---|   -------| ---|   ---|   ----------
C |-2-| X8--0-2-0-| -5-| X8-0-2-0-| -7-| X8-2-| X8-0-2-0----
G |-2-|   --0-2-0-| -5-|   -0-2-0-| -7-|   -2-|   -0-2-0----
C |-2-|   --0-2-0-| -5-|   -0-2-0-| -7-|   -2-|   -0-2-0----

(Guitar 2)
D |---------------------------------------------------------|
A |---------------------------------------------------------|
F |---------------------------------------------------------|
C |-2-4-5--2-4-5--2-5---0-2-0-------------------------------|
G |---------------------0-2-0-------------------------------|
C |---------------------0-2-0-------------------------------|

(synth)
D |----|   ---|   ---|   -----------------------------------|
A |-12-|   -9-|   -7-|   -----------------------------------|
F |-x--|   -x-|   -x-|   -----------------------------------|
C |-9--| X8-7-| X8-5-| X8-----------------------------------|
G |----|   ---|   ---|   -----------------------------------|
C |----|   ---|   ---|   -----------------------------------|


	Well thats it folks
	Hope it was good enough for the time being
			 __
	|  / |\    /|   /  \
	| /  | \  / |  /
	|/   |  \/  | |
	|\   |	    | |
	| \  |	    |  \
	|  \ |	    |   \__/


	*Keeperoftheshinyshinyrockingstars*
Tap to rate this tab
# A B C D E F G H I J K L M N O P Q R S T U V W X Y Z