Song name
# A B C D E F G H I J K L M N O P Q R S T U V W X Y Z

Korn - Need To tab

Gtr I (A D G C F A D) - 'Head - Left Guitar'
Gtr II (A D G C F A D) - 'Munky - Right Guitar'


 Intro
  Q=110
 4/4
  Gtr II
      PM               PM               PM               PM
   Q  E  Q  E Q     Q  E  Q  E Q     Q  E  Q  E Q     Q  E  Q  Q.
|----------------|----------------|----------------|----------------|
|----------------|----------------|----------------|----------------|
|----------------|----------------|----------------|----------------|
|----------------|----------------|----------------|----------------|
|----------------|----------------|----------------|----------------|
|----------------|----------------|----------------|----------------|
|-13--0-13--0----|-13--0-13--0----|-13--0-13--0----|-13--0-13--0----|


   Pre-Chorus Riff
    Q=120
              A                A                A                A
    Gtrs I, II
     Q  E  Q  Q.      Q  E  Q  Q.      Q  E  Q  Q.      Q  E  Q  Q.
||-----------------|----------------|----------------|------------------||
||-----------------|----------------|----------------|------------------||
||o-11----11-------|-11----11-------|-11----11-------|-11----11--------o||
||--10----10-------|-10----10-------|-10----10-------|-10----10---------||
||o--9-----9-------|--9-----9-------|--9-----9-------|--9-----9--------o||
||---8-----8--7----|--8-----8--7----|--8-----8--7----|--8-----8--7------||
||------0-----0----|-----0-----0----|-----0-----0----|-----0-----0------||


    Gtr I
     Q       E    Q       q.         Q       E    Q       q.
||--------------------------------|-------------------------------|
||--------------------------------|-------------------------------|
||o-11-----------11---------------|-11-----------11---------------|
||--10-----------10---------------|-10-----------10---------------|
||o--9------------9---------------|--9------------9---------------|
||---8------------8---------------|--8------------8---------------|
||-----------0------------0-------|----------0------------0-------|
|
|   Gtr II
|    S S S S S S  S S S S S  S Q     S S S S S S  S S S S S  S Q
||---2-2-2-2-2-2--2-2-2-2-2--2----|--2-2-2-2-2-2--2-2-2-2-2--2----|
||---1----------------------------|--1----------------------------|
||o-------------------------------|-------------------------------|
||--------------------------------|-------------------------------|
||o-------------------------------|-------------------------------|
||--------------------------------|-------------------------------|
||--------------------------------|-------------------------------|


   Q       E    Q       q.         Q       E    Q       q.
|-------------------------------|----------------------------------||
|-------------------------------|----------------------------------||
|-11-----------11---------------|-11-----------11-----------------o||
|-10-----------10---------------|-10-----------10------------------||
|--9------------9---------------|--9------------9-----------------o||
|--8------------8---------------|--8------------8------------------||
|----------0------------0-------|----------0------------0----------||
|
|  S S S S S S  S S S S S  S Q     S S S S S S  S S S S S  S Q
|--2-2-2-2-2-2--2-2-2-2-2--2----|--2-2-2-2-2-2--2-2-2-2-2--2-------||
|--1----------------------------|--1-------------------------------||
|-------------------------------|---------------------------------o||
|-------------------------------|----------------------------------||
|-------------------------------|---------------------------------o||
|-------------------------------|----------------------------------||
|-------------------------------|----------------------------------||


   Vers
    Gtrs I, II
        PM               PM               PM               PM
     Q  E  Q  E Q     Q  E  Q  E Q     Q  E  Q  E Q     Q  E  Q  E Q
||-----------------|----------------|----------------|------------------||
||-----------------|----------------|----------------|------------------||
||o----------------|----------------|----------------|-----------------o||
||-----------------|----------------|----------------|------------------||
||o----------------|----------------|----------------|-----------------o||
||-----------------|----------------|----------------|------------------||
||--13--0-13--0----|-13--0-13--0----|-13--0-13--0----|-13--0-13--0------||


 Pre Chorus Riff
            A                A                A                A
  Gtr I
   Q  E  Q  Q.      Q  E  Q  Q.      Q  E  Q  Q.      Q  E  Q  Q.
|----------------|----------------|----------------|----------------|
|----------------|----------------|----------------|----------------|
|-11----11-------|-11----11-------|-11----11-------|-11----11-------|
|-10----10-------|-10----10-------|-10----10-------|-10----10-------|
|--9-----9-------|--9-----9-------|--9-----9-------|--9-----9-------|
|--8-----8--7----|--8-----8--7----|--8-----8--7----|--8-----8--7----|
|-----0-----0----|-----0-----0----|-----0-----0----|-----0-----0----|
|
| Gtr II
|  Q  E  Q  Q.      Q  E  Q  Q.      Q  E  Q  Q.      Q  E  Q  Q.
|----------------|----------------|----------------|----------------|
|----------------|----------------|----------------|----------------|
|-11----11-------|-11----11-------|-11----11-------|-11----11-------|
|-10----10-------|-10----10-------|-10----10-------|-10----10-------|
|--9-----9-------|--9-----9-------|--9-----9-------|--9-----9-------|
|--8-----8--7----|--8-----8--7----|--8-----8--7----|--8-----8--7----|
|-----0-----0----|-----0-----0----|-----0-----0----|-----0-----0----|


  Gtr I
   Q       E    Q       q.         Q       E    Q       q.
|-------------------------------|-------------------------------|
|-------------------------------|-------------------------------|
|-11-----------11---------------|-11-----------11---------------|
|-10-----------10---------------|-10-----------10---------------|
|--9------------9---------------|--9------------9---------------|
|--8------------8---------------|--8------------8---------------|
|----------0------------0-------|----------0------------0-------|
|
| Gtr II
|  S S S S S S  S S S S S  S Q     S S S S S S  S S S S S  S Q
|--2-2-2-2-2-2--2-2-2-2-2--2----|--2-2-2-2-2-2--2-2-2-2-2--2----|
|--1----------------------------|--1----------------------------|
|-------------------------------|-------------------------------|
|-------------------------------|-------------------------------|
|-------------------------------|-------------------------------|
|-------------------------------|-------------------------------|
|-------------------------------|-------------------------------|


   Q       E    Q       q.         Q       E    Q       q.
|-------------------------------|-------------------------------|
|-------------------------------|-------------------------------|
|-11-----------11---------------|-11-----------11---------------|
|-10-----------10---------------|-10-----------10---------------|
|--9------------9---------------|--9------------9---------------|
|--8------------8---------------|--8------------8---------------|
|----------0------------0-------|----------0------------0-------|
|
|  S S S S S S  S S S S S  S Q     S S S S S S  S S S S S  S Q
|--2-2-2-2-2-2--2-2-2-2-2--2----|--2-2-2-2-2-2--2-2-2-2-2--2----|
|--1----------------------------|--1----------------------------|
|-------------------------------|-------------------------------|
|-------------------------------|-------------------------------|
|-------------------------------|-------------------------------|
|-------------------------------|-------------------------------|
|-------------------------------|-------------------------------|


   Vers
    Gtrs I, II
        PM               PM               PM               PM
     Q  E  Q  E Q     Q  E  Q  E Q     Q  E  Q  E Q     Q  E  Q  E Q
||-----------------|----------------|----------------|------------------||
||-----------------|----------------|----------------|------------------||
||o----------------|----------------|----------------|-----------------o||
||-----------------|----------------|----------------|------------------||
||o----------------|----------------|----------------|-----------------o||
||-----------------|----------------|----------------|------------------||
||--13--0-13--0----|-13--0-13--0----|-13--0-13--0----|-13--0-13--0------||


 Pre-Chorus Riff
            A                A                A                A
  Gtrs I, II
   Q  E  Q  Q.      Q  E  Q  Q.      Q  E  Q  Q.      Q  E  Q  Q.
|----------------|----------------|----------------|----------------|
|----------------|----------------|----------------|----------------|
|-11----11-------|-11----11-------|-11----11-------|-11----11-------|
|-10----10-------|-10----10-------|-10----10-------|-10----10-------|
|--9-----9-------|--9-----9-------|--9-----9-------|--9-----9-------|
|--8-----8--7----|--8-----8--7----|--8-----8--7----|--8-----8--7----|
|-----0-----0----|-----0-----0----|-----0-----0----|-----0-----0----|


   Chorus
    D5             A5      Bb5  F5   E5          Eb5
    Gtr I
    W              H       Q    Q    W            W
||---------------|-----------------|-----------|--------||
||---------------|-----------------|-----------|--------||
||o--------------|-----------------|-----------|-------o||
||---------------|-----------------|-----------|--------||
||o-2------------|--------------5--|-4---------|--3----o||
||--0------------|-2-------3----3--|-2---------|--1-----||
||---------------|-0-------1-------|-----------|--------||
|
|   Gtr II
|   TP   TP        TP~~    TP        TP   TP      TP
|   H    H         H       H         H    H       W
||---------------|-----------------|-----------|-^0-----||
||--0----0-------|-0-------0-------|-0----0----|-^0-----||
||o-3----3b4=====|=3b4=====3b4r====|=3----3----|-^3----o||
||---------------|-----------------|-----------|--------||
||o--------------|-----------------|-----------|-------o||
||---------------|-----------------|-----------|--------||
||---------------|-----------------|-----------|--------||


  D5             A5      Bb5  F5   E5          Eb5
  W              H       Q    Q    W            W
|--------------|-----------------|-----------|-------|
|--------------|-----------------|-----------|-------|
|--------------|-----------------|-----------|-------|
|--------------|-----------------|-----------|-------|
|-2------------|--------------5--|-4---------|--3----|
|-0------------|-2-------3----3--|-2---------|--1----|
|--------------|-0-------1-------|-----------|-------|
|
| TP   TP        TP~~    TP        TP   TP      TP
| H    H         H       H         H    H       W
|--------------|-----------------|-----------|-^0----|
|-0----0-------|-0-------0-------|-0----0----|-^0----|
|-3----3b4=====|=3b4=====3b4r====|=3----3----|-^3----|
|--------------|-----------------|-----------|-------|
|--------------|-----------------|-----------|-------|
|--------------|-----------------|-----------|-------|
|--------------|-----------------|-----------|-------|


                                               Q=100
  D5             A5      Bb5  F5   E5          Eb5
  W              H       Q    Q    W            W
|--------------|-----------------|-----------|-------|
|--------------|-----------------|-----------|-------|
|--------------|-----------------|-----------|-------|
|--------------|-----------------|-----------|-------|
|-2------------|--------------5--|-4---------|--3----|
|-0------------|-2-------3----3--|-2---------|--1----|
|--------------|-0-------1-------|-----------|-------|
|
| TP   TP        TP~~    TP        TP   TP      TP
| H    H         H       H         H    H       W
|--------------|-----------------|-----------|-^0----|
|-0----0-------|-0-------0-------|-0----0----|-^0----|
|-3----3b4=====|=3b4=====3b4r====|=3----3----|-^3----|
|--------------|-----------------|-----------|-------|
|--------------|-----------------|-----------|-------|
|--------------|-----------------|-----------|-------|
|--------------|-----------------|-----------|-------|


   Interlude
    D5                               F5 E5 Eb5
   21/8                             3/4
    Gtrs I, II
                                     PM----|
    W        +W         +H     +E    q  q  q   3x
||---------------------------------|-----------||
||---------------------------------|-----------||
||o--------------------------------|----------o||
||---------------------------------|-----------||
||o-2--------(2)--------(2)----(2)-|-5--4--3--o||
||--0--------(0)--------(0)----(0)-|-3--2--1---||
||---------------------------------|-----------||


  D5                                          F5 E5 Eb5
 21/8                                        3/4
  Gtr I
                                              PM----|
  W         S. S. Q  Q.   Q.     Q  +E.       q  q  q
|-------------------------------------------|----------|
|-------------------------------------------|----------|
|-------------------------------------------|----------|
|-------------------------------------------|----------|
|-2-----------------------1------2--(2)-----|-5--4--3--|
|-0---------3--2--1--0----------------------|-3--2--1--|
|-------------------------------------------|----------|
|
| Gtr II
|                                             PM----|
| W        +W                +H         +E    q  q  q
|-------------------------------------------|----------|
|-------------------------------------------|----------|
|-------------------------------------------|----------|
|-------------------------------------------|----------|
|-2--------(2)---------------(2)--------(2)-|-5--4--3--|
|-0--------(0)---------------(0)--------(0)-|-3--2--1--|
|-------------------------------------------|----------|


  D5                               F5 E5 Eb5
 21/8                             3/4
  Gtrs I, II
                                   PM----|
  W        +W         +H     +E    q  q  q
|--------------------------------|----------|
|--------------------------------|----------|
|--------------------------------|----------|
|--------------------------------|----------|
|-2--------(2)--------(2)----(2)-|-5--4--3--|
|-0--------(0)--------(0)----(0)-|-3--2--1--|
|--------------------------------|----------|


  D5                                   F5 E5 Eb5
 21/8                                 3/4
  Gtrs I, II
                                       PM----|
  W        S. S. Q  Q.   Q.   Q  +E.   q  q  q
|------------------------------------|----------|
|------------------------------------|----------|
|------------------------------------|----------|
|------------------------------------|----------|
|-2----------------------1----2--(2)-|-5--4--3--|
|-0--------3--2--1--0----------------|-3--2--1--|
|------------------------------------|----------|


  Q=120
                         G#
 4/4
  Wx3          H.      S S E
|------------|---------------|
|------------|---------------|
|------------|---------------|
|------------|---------------|
|------------|-----------5---|
|------------|-----------6---|
|------------|---------------|


 Pre-Chorus Riff
            A                A                A                A
  Gtrs I, II
   Q  E  Q  Q.      Q  E  Q  Q.      Q  E  Q  Q.      Q  E  Q  Q.
|----------------|----------------|----------------|----------------|
|----------------|----------------|----------------|----------------|
|-11----11-------|-11----11-------|-11----11-------|-11----11-------|
|-10----10-------|-10----10-------|-10----10-------|-10----10-------|
|--9-----9-------|--9-----9-------|--9-----9-------|--9-----9-------|
|--8-----8--7----|--8-----8--7----|--8-----8--7----|--8-----8--7----|
|-----0-----0----|-----0-----0----|-----0-----0----|-----0-----0----|


  Gtr I
   Q     E    Q       q.            Q       E    Q       q.
|--------------------------------|----------------------------|
|--------------------------------|----------------------------|
|-11---------11------------------|-11-----------11------------|
|-10---------10------------------|-10-----------10------------|
|--9----------9------------------|--9------------9------------|
|--8----------8------------------|--8------------8------------|
|--------0------------0----------|----------0------------0----|
|
| Gtr II
|  E S S S S  S S S S S  S S S E    S S S S S S  S S S S Q.
|--3-1-1-1-1--2-2-2-2-2--2-2-2---|--2-2-2-2-2-2--2-2-2-2------|
|--2-0-0-0-0--1-1-1-1-1--1-1-1---|--1-1-1-1-1-1--1-1-1-1------|
|--------------------------------|----------------------------|
|--------------------------------|----------------------------|
|--------------------------------|----------------------------|
|--------------------------------|----------------------------|
|--------------------------------|----------------------------|


   Q     E    Q       q.            Q       E    Q       q.
|--------------------------------|----------------------------------|
|--------------------------------|----------------------------------|
|-11---------11------------------|-11-----------11------------------|
|-10---------10------------------|-10-----------10------------------|
|--9----------9------------------|--9------------9------------------|
|--8----------8------------------|--8------------8------------------|
|--------0------------0----------|----------0------------0----------|
|
|  E S S S S  S S S S S  S S S E    S S S S S S  S S S S S  S S S E
|--3-1-1-1-1--2-2-2-2-2--2-2-2---|--2-2-2-2-2-2--2-2-2-2-2--2-2-2---|
|--2-0-0-0-0--1-1-1-1-1--1-1-1---|--1-1-1-1-1-1--1-1-1-1-1--1-1-1---|
|--------------------------------|----------------------------------|
|--------------------------------|----------------------------------|
|--------------------------------|----------------------------------|
|--------------------------------|----------------------------------|
|--------------------------------|----------------------------------|


   Chorus
    D5             A5      Bb5  F5   E5          Eb5
    Gtr I
    W              H       Q    Q    W           W
||---------------|-----------------|-----------|-------||
||---------------|-----------------|-----------|-------||
||o--------------|-----------------|-----------|------o||
||---------------|-----------------|-----------|-------||
||o-2------------|--------------5--|-4---------|-3----o||
||--0------------|-2-------3----3--|-2---------|-1-----||
||---------------|-0-------1-------|-----------|-------||
|
|   Gtr II
|   TP   TP        TP~~    TP        TP   TP
|   H    H         H       H         H    H      W
||---------------|-----------------|-----------|-0-----||
||--0----0-------|-0-------0-------|-0----0----|-0-----||
||o-3----3b4=====|=3b4=====3b4r====|=3----3----|-3----o||
||---------------|-----------------|-----------|-3-----||
||o--------------|-----------------|-----------|-3----o||
||---------------|-----------------|-----------|-1-----||
||---------------|-----------------|-----------|-------||


  D5         A5   Bb5F5   E5         Eb5
  Gtrs I, II
  W          H    Q  Q    W          W
|----------|------------|----------|------|
|----------|------------|----------|------|
|----------|------------|----------|------|
|----------|------------|----------|------|
|-2--------|---------5--|-4--------|-3----|
|-0--------|-2----3--3--|-2--------|-1----|
|----------|-0----1-----|----------|------|


 Outro
  Gtrs I, II
   Q  E  Q  E S S S S    Q  E  Q  E S S S S
|---------------------|---------------------|
|---------------------|---------------------|
|-11----11------------|-11----11------------|
|-10----10------------|-10----10------------|
|--9-----9----x-x-x-x-|--9-----9----x-x-x-x-|
|--8-----8--7-x-x-x-x-|--8-----8--7-x-x-x-x-|
|-----0-----0-x-x-x-x-|-----0-----0-x-x-x-x-|


   Q  E  Q  E S S S S    Q  E  Q  E S S S S
|---------------------|----------------------|
|---------------------|----------------------|
|-11----11------------|-11----11-------------|
|-10----10------------|-10----10-------------|
|--9-----9----x-x-x-x-|--9-----9----x-x-x-x--|
|--8-----8--7-x-x-x-x-|--8-----8--7-x-x-x-x--|
|-----0-----0-x-x-x-x-|-----0-----0-x-x-x-x--|


   Q  E  Q  E S S S S    Q  E  Q  E S S S S    Q  E  Q  E S S S S
|---------------------|---------------------|----------------------*|
|---------------------|---------------------|----------------------*|
|-11----11------------|-11----11------------|-11----11-------------*|
|-10----10------------|-10----10------------|-10----10-------------*|
|--9-----9----x-x-x-x-|--9-----9----x-x-x-x-|--9-----9----x-x-x----*|
|--8-----8--7-x-x-x-x-|--8-----8--7-x-x-x-x-|--8-----8--7-x-x-x----*|
|-----0-----0-x-x-x-x-|-----0-----0-x-x-x-x-|-----0-----0-x-x-x----*|




--------------------------------------------------------------------------------


Duration Legend
---------------
W - whole; H - half; Q - quarter; E - 8th; S - 16th; T - 32nd; X - 64th; a - acciaccatura
+ - note tied to previous; . - note dotted; .. - note double dotted
Uncapitalized letters represent notes that are staccato (1/2 duration)
Irregular groupings are notated above the duration line
Duration letters will always appear directly above the note/fret number it represents the
duration for.  Duration letters with no fret number below them represent rests.  Multi-
bar rests are notated in the form Wxn, where n is the number of bars to rest for.  Low
melody durations appear below the staff

Tablature Legend
----------------
 h   - hammer-on
 p   - pull-off
 b   - bend
 pb  - pre-bend
 r   - bend release (if no number after the r, then release immediately)
 /\  - slide into or out of (from/to "nowhere")
 s   - legato slide
 S   - shift slide
 - natural harmonic
[n]  - artificial harmonic
n(n) - tapped harmonic
 ~   - vibrato
 tr  - trill
 T   - tap
 TP  - trem. picking
 PM  - palm muting
\n/  - tremolo bar dip; n = amount to dip
 \n  - tremolo bar down
 n/  - tremolo bar up
/n\  - tremolo bar inverted dip
 =   - hold bend; also acts as connecting device for hammers/pulls
 <> - volume swell (louder/softer)
 x   - on rhythm slash represents muted slash
 o   - on rhythm slash represents single note slash

Misc Legend
-----------
 |  - bar
||  - double bar
||o - repeat start
o|| - repeat end
*|  - double bar (ending)
 :  - bar (freetime)
 $  - Segno
 &  - Coda
Tempo markers -  = BPM(8/16=s8/s16), where s8 = swing 8ths, s16 = swing 16ths


Tap to rate this tab
# A B C D E F G H I J K L M N O P Q R S T U V W X Y Z