Song name
# A B C D E F G H I J K L M N O P Q R S T U V W X Y Z

Korpiklaani - Vodka chords

Highlighted       Show chord diagrams
Title: Vodka
Artist: Korpiklaani
Tuning: Drop D (DADGBe)

Tabbed by: Moritz Fink


Intro:
D5 (x4)
VODKA

D5   F5   Bb5   G5   (x3)

Verse:
D5
Vodka! You're feeling stronger! 
F5
Vodka! No more feeling bad! 
Bb5
Vodka! You're eyes are shining! 
G5
Vodka! You are the real man! 
D5
Vodka! Washes away your tears. 
F5
Vodka! Removes your fears. 
Bb5
Vodka! The woman is gorgeous. 
G5
Yeah vodka!! 

Chorus:
D5
Drinking is good for you 
F5
Soon you are unconstrained 
Bb5
Drinking is good for you 
G5
Here comes the womanizer 
D5
Drinking is good for you 
F5
Not anymore lonesome 
Bb5
Drinking is good for you 
G5
And you will feel awesome!! 

Post-Chorus:
D5   F5   Bb5   G5   (x2)
You're really feeling awesome ! 

Interlude I:
|------------------|------------------|------------------|------------------|
|------------------|------------------|------------------|------------------|
|------------------|------------------|------------------|------------------|
|-0-0-3/5-0-0-3/5--|-0-0-3/5-0-0-3/5--|-0-0-3/5-0-0-3/5--|--5---5---5---5---|
|-0-0-3/5-0-0-3/5--|-0-0-3/5-0-0-3/5--|-0-0-3/5-0-0-3/5--|--5---5---5---5---|
|-0-0-3/5-0-0-3/5--|-0-0-3/5-0-0-3/5--|-0-0-3/5-0-0-3/5--|--5---5---5---5---|
Pm. .     . .        . .     . .        . .     . .
Out of respect for nature, our vodka and drinkers. 

|------------------|------------------|------------------|------------------|
|------------------|------------------|------------------|------------------|
|------------------|------------------|------------------|------------------|
|-0-0-3/5-0-0-3/5--|-0-0-3/5-0-0-3/5--|-0-0-3/5-0-0-3/5--|------------------|
|-0-0-3/5-0-0-3/5--|-0-0-3/5-0-0-3/5--|-0-0-3/5-0-0-3/5--|------------------|
|-0-0-3/5-0-0-3/5--|-0-0-3/5-0-0-3/5--|-0-0-3/5-0-0-3/5--|------------------|
Pm. .     . .        . .     . .        . .     . .
Promising that the vodka will serve as pure as it was thousands of years ago. 

|------------------|------------------|------------------|------------------|
|------------------|------------------|------------------|------------------|
|------------------|------------------|------------------|------------------|
|-0-0-3/5-0-0-3/5--|-0-0-3/5-0-0-3/5--|-0-0-3/5-0-0-3/5--|--5---5---5---5---|
|-0-0-3/5-0-0-3/5--|-0-0-3/5-0-0-3/5--|-0-0-3/5-0-0-3/5--|--5---5---5---5---|
|-0-0-3/5-0-0-3/5--|-0-0-3/5-0-0-3/5--|-0-0-3/5-0-0-3/5--|--5---5---5---5---|
Pm. .     . .        . .     . .        . .     . .
Out of respect for nature, our vodka and drinkers. 

Verse

Chorus (x2)

Interlude II:
D5 (let it ring)

Palm muted: D5   F5   Bb5   G5   (x2)

D5   F5   Bb5   G5   (x4)

Verse

Chorus

D5 D5
VODKA ! 
Tap to rate this tab
# A B C D E F G H I J K L M N O P Q R S T U V W X Y Z