Korpiklaani - Tequila tab

Korpiklaani - Tequila
(Ukon Wacka 2011)


Riff 1:

E------------------------------------------------...
B------------------------------------------------...
G------------------------------------------------... Repeat
D------------------5-7---------------------------...
A--7-777-7-7-7-3-3-3-5-7-777-7-7-7-3-3-3-3-5-5---...
D--7-777-7-7-7-3-3-----7-777-7-7-7-3-3-3-3-5-5---...

Riff 2:

E-------------------------------------------.---..
B-------------------------------------------.---..
G-----------------------------------------------....   Repeat
D--77777-7-7-33333-5-5-77777-7-7-10-9-7-5-(7).--..
A--55555---5-11111-3-3-55555---5-8--7-5-3-(5).--..
D-------------------------------------------..--..

Enjoy!
Cheers from Hungary!

Tabbed by Vata
Tap to rate this tab
 
# A B C D E F G H I J K L M N O P Q R S T U V W X Y Z