Song name
# A B C D E F G H I J K L M N O P Q R S T U V W X Y Z

Korpiklaani - Wooden Pints tab

-------------------------------------------------------------------------------
			     Korpiklaani- Wooden Pints
-------------------------------------------------------------------------------

Tabbed By euan_soad

VERSE:

E|------------------------------|
B|------------------------------|
G|-------------------------5----|
D|-777-777-7777777-7777-55-3-77-|  
A|-555-555-5555555-5555-33---55-|
E|------------------------------|
 
PM==============================
CHORUS: (Easiest to hear when the bass plays it solo at 2:45)

E|--------------------------|
B|--------------------------|
G|------5-7-9--------5------|
D|-7-5--3-5-7-----5--3--7-7-|
A|-5-3---------8--3-----5-5-|
E|-------------6------------|


Main Fiddle Riff (Played over Chorus):

E|--------------------------------------------|
B|--------------------------------------------|
G|--------------------------------------------|
D|--0-2-3-2-0---3-3h5-3p2---0-2-3-2-0---3-0---|
A|------------3-----------------------3-------|
E|--------------------------------------------|


Don't have the Fiddle solo worked out

Order

Intro (No guitar)
Chorus (With Fiddle) x 4 
Verse x 2
Chorus (With Fiddle) x 4
Verse x 2
Chorus (With Fiddle) x 4
Verse x 2
Chorus (With Fiddle) x 4
Verse Riff Under Fiddle Solo X 2
Chorus (Still Fiddle Solo) X 4
Bass Chorus (With Fiddle) X 4
Chorus (With Fiddle) to end, with slight variations in fiddle riff
Tap to rate this tab
# A B C D E F G H I J K L M N O P Q R S T U V W X Y Z