Song name
# A B C D E F G H I J K L M N O P Q R S T U V W X Y Z

Korpiklaani - Surma tab

Here's the accordion tabs for Surma by Korpiklaani :D ENJOY \m/



E|-------------------------------------------------------------------------|
B|-------------------------------------------------------------8-----------|
G|------7--7--------------7-9-10-9-7---7-9-10--10-9-7--7-9-10--------------|
D|-7-10------10-7---7-10-----------------------------------------10--------|
A|-------------------------------------------------------------------------|
E|-------------------------------------------------------------------------|



E|-----------------------------------------------------10-10---------------|
B|-10--10-8------------10---------------------------10---------------------|
G|----------10-10---9------7----7-9-10--10-9-7---10-----------7------------|
D|-------------------------------------------------------------------------|
A|-------------------------------------------------------------------------|
E|-------------------------------------------------------------------------|

I think that the whole song has to be played with Drop D but I don't think that's 
important for the intro
Tap to rate this tab
# A B C D E F G H I J K L M N O P Q R S T U V W X Y Z