Song name
# A B C D E F G H I J K L M N O P Q R S T U V W X Y Z

Ksm - Read Between The Lines tab

----------------------------------------------------------------------------
			     Read Between The Lines - KSM
----------------------------------------------------------------------------
Tabbed by: Abby
Email:

Tuning: Standard  (EADGBe)

KSM is a pretty new band, debut album September 22! 
www.ksmofficial.com
www.myspace.com/ksmofficial

(i'm giving the chords played, not the number of times you play them. its not hard to figure out)

    Intro

e|--------------------------------------------------------------------------
B|-------------------------------------------------------------------------|
G|-------------------------------------------------------------------------|
D|--11---8----11--8--------------------------------------------------------|
A|--11---8----11--8--------------------------------------------------------|
E|--9----6----9---6--------------------------------------------------------|


     Verse
e|-------------------------------------------------------------------------|
B|-------------------------------------------------------------------------|
G|----------------8-----8---13---------------------------------------------|
D|--11--8--11-8---8--9--8---13-----x2--------------------------------------|
A|--11--8--11-8---6--9--6---11---------------------------------------------|
E|--9---6--9--6------7-----------------------------------------------------|


    Chorus
e|-------------------------------------------------------------------------|
B|-------------------------------------------------------------------------|
G|-----11------13------11-13-----13--11--13--------------------------------|
D|--8--11--11--13--x2--11-13--8--13--11--13--------------------------------|
A|--8--9---11--11------9--11--8--11--9---11--------------------------------|
E|--6------9------------------6--------------------------------------------|


     Bridge
e|-------------------------------------------------------------------------|
B|-------------------------------------------------------------------------|
G|--8-----8---13--11--13-----13--11--13-----13--11--13-----13--11--13------|
D|--8--9--8---13--11--13--8--13--11--13--8--13--11--13--8--13--11--13------|
A|--6--9--6---11--9---11--8--11--9---11--8--11--9---11--8--11--9---11------|
E|-----7------------------6--------------6--------------6------------------|



| /  slide up
| \  slide down
| h  hammer-on
| p  pull-off
| ~  vibrato
| +  harmonic
| x  Mute note
===============================================================================
Tap to rate this tab
 
# A B C D E F G H I J K L M N O P Q R S T U V W X Y Z