Song name
# A B C D E F G H I J K L M N O P Q R S T U V W X Y Z

Ksm - Distracted tab

DISTRACTED--KSM

http://www.youtube.com/watch?v=WNE_QrvPE2Q

Both Shae [lead] and Katie's [rhythm] parts


INTRO--SHAE: 
e|-------------------------------------------------------------------------|
B|-------------------------------------------------------------------------|
G|--3-2-3-2-3----3-2-3-2-3----3-2-3-5-3-2----3-2-3-2-3---------------------|
D|-------------------------------------------------------------------------|
A|-------------------------------------------------------------------------|
E|-------------------------------------------------------------------------|

INTRO--KATIE:
e|-------------------------------------------------------------------------|
B|-------------------------------------------------------------------------|
G|-----8-------------------------------------------------------------------|
D|--5--8--8--8/3-----------------------------------------------------------|
A|--5--6--8--8/3-----------------------------------------------------------|
E|--3-----6--6/1-----------------------------------------------------------|

VERSE--SHAE:
e|-------------------------------------------------------------------------|
B|-------------------------------------------------------------------------|
G|--3-2-3-2-3----3-2-3-2-3----3-2-3-5-3-2----3-2-3-2-3---------------------|
D|-------------------------------------------------------------------------|
A|-------------------------------------------------------------------------|
E|-------------------------------------------------------------------------|

e|-------------------------------------------------------------------------|
B|-------------------------------------------------------------------------|
G|--3-2-3-2-3----3-2-3-2-3----3-2-3-5-3-2----3-2-3-2~----------------------|
D|-------------------------------------------------------------------------|
A|-------------------------------------------------------------------------|
E|-------------------------------------------------------------------------|

VERSE--KATIE:
e|-------------------------------------------------------------------------|
B|-------------------------------------------------------------------------|
G|-----8-------------------------------------------------------------------|
D|--5--8--8--8/3-----------------------------------------------------------|
A|--5--6--8--8/3--x2-------------------------------------------------------|
E|--3-----6--6/1-----------------------------------------------------------|

PRE-CHORUS--SHAE:
e|-------------------------------------------------------------------------|
B|-------------------------------------------------------------------------|
G|-------------------------------------------------------------------------|
D|-------------------------------------------------------------------------|
A|--3-3-3-3-5-5-5-5-6-6-6-6-8-8-8-8-10-10-10-10-12-12-12-12-13-13-13-13-13-|
E|-------------------------------------------------------------------------|

PRE-CHORUS--KATIE:
e|-------------------------------------------------------------------------|
B|-------------------------------------------------------------------------|
G|--5--------8-------------------------------------------------------------|
D|--5--------8-------------------------------------------------------------|
A|--3--x16---6--x16--------------------------------------------------------|
E|-------------------------------------------------------------------------|

CHORUS--BOTH:
e|-------------------------------------------------------------------------|
B|-------------------------------------------------------------------------|
G|--------8--------7/8-8--7/8-8--7/8--7/8--7/8--7/8--7---------------------|
D|--8--3--8--8--3--7/8-8--7/8-8--7/8--7/8--7/8--7/8--7---------------------|
A|--8--3--6--8--3--5/6-6--5/6-6--5/6--5/6--5/6--5/6--5---------------------|
E|--6--1-----6--1----------------------------------------------------------|

e|-------------------------------------------------------------------------|
B|-------------------------------------------------------------------------|
G|--------8--------5-------------------------------------------------------|
D|--8--3--8--5--3--5-------------------------------------------------------|
A|--8--3--6--5--3--3-------------------------------------------------------|
E|--6--1-----3--1----------------------------------------------------------|

BRIDGE--BOTH:
e|-------------------------------------------------------------------------|
B|-------------------------------------------------------------------------|
G|-------------------------------------------------------------------------|
D|--6--6--8--3--6--6--4----------------------------------------------------|
A|--6--6--8--3--6--6--4----------------------------------------------------|
E|--4--3--6--1--4--3--2----------------------------------------------------|

SOLO--SHAE:
e|-------------------------------------------------------------------------|
B|--8-11-11-10-11--x2---8-11-11-13-11-10---8-11-11-10-11-------------------|
G|-------------------------------------------------------------------------|
D|-------------------------------------------------------------------------|
A|-------------------------------------------------------------------------|
E|-------------------------------------------------------------------------|

e|-------------------------------------------------------------------------|
B|--8-11-11-10-11--x2---8-11-11-13-11-10---8-11-11-10~---------------------|
G|-------------------------------------------------------------------------|
D|-------------------------------------------------------------------------|
A|-------------------------------------------------------------------------|
E|-------------------------------------------------------------------------|

SOLO--KATIE:
e|-------------------------------------------------------------------------|
B|-------------------------------------------------------------------------|
G|----------8-8-8----------------------------------------------------------|
D|--5-5-5---8-8-8---8-8-8--8/3-3-3-----------------------------------------|
A|--5-5-5---6-6-6---8-8-8--8/3-3-3-----------------------------------------|
E|--3-3-3-----------6-6-6--6/1-1-1-----------------------------------------|

FINAL CHORUS--BOTH:
e|-------------------------------------------------------------------------|
B|-------------------------------------------------------------------------|
G|--------8--------7/8-8--7/8-8--7/8--7/8--7/8--7/8--7---------------------|
D|--8--3--8--8--3--7/8-8--7/8-8--7/8--7/8--7/8--7/8--7---------------------|
A|--8--3--6--8--3--5/6-6--5/6-6--5/6--5/6--5/6--5/6--5---------------------|
E|--6--1-----6--1----------------------------------------------------------|

e|-------------------------------------------------------------------------|
B|-------------------------------------------------------------------------|
G|--------8--------5-------------------------------------------------------|
D|--8--3--8--5--3--5--5~---------------------------------------------------|
A|--8--3--6--5--3--3--5~---------------------------------------------------|
E|--6--1-----3--1-----3~---------------------------------------------------|

For the verses for katie you only hit the chord once, but 
for the solo you hit each three times. Enjoy!
Buy their new CD!! SEPTEMBER 22nd!!


Tap to rate this tab
# A B C D E F G H I J K L M N O P Q R S T U V W X Y Z