Song name
# A B C D E F G H I J K L M N O P Q R S T U V W X Y Z

Ksm - Best Friends Forever chords

Highlighted       Show chord diagrams
----------------------------------------------------------------------------
                      Best Friends Forever - KSM
----------------------------------------------------------------------------


Tabbed by : Abby
Tuning: Standard (EADGBe)

Chords:
    G  D/F# Cadd9   D   Em   C   A 
e|--3---3-----3-----2---0----0---0-----------------------------------------|
B|--3---3-----3-----3---0----1---2-----------------------------------------|
G|--0---2-----0-----2---0----0---2-----------------------------------------|
D|--0---0-----2-----0---2----2---2-----------------------------------------|
A|--2---0-----3-----x---2----3---0-----------------------------------------|
E|--3---2-----x-----x---x----x---x-----------------------------------------|


Intro:  G - Cadd9 - D - Em

G                         Cadd9
Tears you try so hard to hide
                  D
You hold it all inside
                   G
Pretend it doesn't matter
G             Cadd9
Why keep it yourself
                    D
When you got someone else
                     G         D/F#
You know can make it better?


Em              D
You try to be so strong
             C
But I always know when something's wrong
A
See when you're feeling down


G     D/F#      Em
Hey, wasn't it you
      D           A
Who's always been there for me?
         C                   D
Don't forget what we've been through together
G     D/F#     Em
Hey, isn't it true?
 D             A
We promised to always be
C
Best friends forever, yeah

G - Cadd9 - D - Em

G                     Cadd9
Words you don't need to say
                      D
The sad that's on your face
               G
Isn't hard to see through
G                     Cadd9
I've been there once or twice
                        D
It's you that made things right
                       G      D/F#
My turn to be there for you


Em                D
You try to be so strong
             C
But I always know when something's wrong
A
See when you're feeling down


G    D/F#      Em
Hey, wasn't it you
      D           A
Who's always been there for me?
       C                    D
Don't forget what we've been through together
G     D/F#     Em
Hey, isn't it true?
 D             A
We promised to always be
C                           D
Best friends forever


C                  A
When the rain comes down
         G
I'll be there
       D/F#              D
I will always be around
C                         A
Just wanna be the one to catch you
         D
When you fall


G - D/F# - Em - D - A - C - D 

G     D/F#     Em
Hey, wasn't it you
      D            A
Who's always been there for me?
     C                      D
Don't forget what we've been through together
G     D/F#    Em
Hey, isn't it true?
 D             A 
We promised to always be
C
Best friends forever 

End on G   
Tap to rate this tab
 
# A B C D E F G H I J K L M N O P Q R S T U V W X Y Z