Song name
# A B C D E F G H I J K L M N O P Q R S T U V W X Y Z

Kyuss - Thee Ol Boozeroony tab

                          Kyuss-Thee Ol' Boozeroony
                      (Album:...And The Circus Leaves Town)
Tabbed by:Kasatchok

I was wondering why this amazing Song from Kyuss wasn't online. So i had
to tab it my self. This is my first Tab so maybe it's not completly correct
but to my ears it sounds fine.

Tuning C-Tuning: (C-F-Bb-Eb-G-C)

So here we go

Intro1(clean):
C |---------------------------------------------------------|
G |----12h15-------12h15---------12h15-------12h15----------|
Eb|----------13~--------10~-----------13~----------10~------|
Bb|---------------------------------------------------------|
F |---------------------------------------------------------|
C |---------------------------------------------------------|

Intro2(Heavy Distortion):
C |---------------------------------------------------------|
G |---------------------------------------------------------|
Eb|----------------9----------------------------9-----------|
Bb|14-14-14-14-14--9------------12/14-14-14-14--9-----------|
F |12-12-12-12-12--7-(let ring)-10/12-12-12-12--7-(let ring)| 4x
C |12-12-12-12-12--0------------10/12-12-12-12--0-----------|

Riff1:
C |------------------------------------|
G |------------------------------------|
Eb|------------------------------------|
Bb|----------13~-13-15-13-15/16-15-13~-|3x
F |----12h14---------------------------|
C |0-0---------------------------------|

then play this

C |-------------------------------------|
G |-------------------------------------|
Eb|-------------------------------------|
Bb|----------13~-----14-----12----------|
F |----12h14---------12-----10----------|
C |0-0------------12-12--10-10----------|

then Riff1 again3x(now bend instead of slide at the 2 time)

then

C |-------------------------------------|
G |-------------------------------------|
Eb|-------------------------------------|
Bb|----------13~-----14-----12----------|
F |----12h14---------12-----10----------|
C |0-0------------12-12--10-10----------|

Riff 2:

C |-------------------------------------|
G |-----15b16--15151515(bend  up slowly)|
Eb|-------------------------------------|
Bb|-------------------------------------|
F |-------------------------------------| 8x
C |0-0----------------------------------|


Thats All
Play on!
Tap to rate this tab
# A B C D E F G H I J K L M N O P Q R S T U V W X Y Z