Song name
# A B C D E F G H I J K L M N O P Q R S T U V W X Y Z

Lacuna Coil - Game tab

ok, this is the real song tab. i listend to the song like ten-thousand times to get the 
now i have gotten the rest of it.

tuning(E,D,A,G,B,e)

   TOOLS:|                 |
         |^=pull strings up|


(intro) first verse                  (6 times)
E|--10-9-7-10-9-7-12-10-9-10-9-7-10-9-6-7--|
D|----0-0-0--0-0-0--0--0-0--0-0-0--0-0-0-0-|
A|-----------------------------------------|
G|-----------------------------------------|
B|-----------------------------------------|
e|-----------------------------------------|

(bridge)
E|----------------------------|
D|----------------------------|
A|-------------9-----------10-|
G|-9-^9-9-^9-9-9-^9-9-^9-9-10-|
B|-9-^9-9-^9-9-7-^9-9-^9-9--8-|
e|-7-^7-7-^7-7---^7-7-^7-7----|

(Chorse)             (2 times)
E|-7----5--7--7----5--7-|
D|-7----5--7--7----5--7-|
A|-7----5--7--7----5--7-|
G|-9----7--9--9----7--9-|
B|-9----7--9--9----7--9-|
e|-7----5--7--7----5--7-|

second verse                   (play 4 times)
E|--10-9-7-10-9-7-12-10-9-10-9-7-10-9-6-7--|
D|----0-0-0--0-0-0--0--0-0--0-0-0--0-0-0-0-|
A|-----------------------------------------|
G|-----------------------------------------|
B|-----------------------------------------|
e|-----------------------------------------|


bridge)
E|----------------------------|
D|----------------------------|
A|-------------9-----------10-|
G|-9-^9-9-^9-9-9-^9-9-^9-9-10-|
B|-9-^9-9-^9-9-7-^9-9-^9-9--8-|
e|-7-^7-7-^7-7---^7-7-^7-7----|

(Chorse)             (2 times)
E|-7----5--7--7----5--7-|
D|-7----5--7--7----5--7-|
A|-7----5--7--7----5--7-|
G|-9----7--9--9----7--9-|
B|-9----7--9--9----7--9-|
e|-7----5--7--7----5--7-|

 (rift)                                 (2 times)
E|-------------------------------------------|
D|-------------------------------------------|
A|-------------------------------------------|
G|12-11-9-12-11-9-14-12-11-12-11-9-12-11-8-9-|
B|-------------------------------------------|
e|-------------------------------------------|

bridge)                (2 times)
E|----------------------------|
D|----------------------------|
A|-------------9-----------10-|
G|-9-^9-9-^9-9-9-^9-9-^9-9-10-|
B|-9-^9-9-^9-9-7-^9-9-^9-9--8-|
e|-7-^7-7-^7-7---^7-7-^7-7----|

(rift)
E|-------------------------------------------|
D|-------------------------------------------|
A|-------------------------------------------|
G|12-11-9-12-11-9-14-12-11-12-11-9-12-11-8-9-|
B|-------------------------------------------|
e|-------------------------------------------|

bridge)
E|----------------------------|
D|----------------------------|
A|-------------9-----------10-|
G|-9-^9-9-^9-9-9-^9-9-^9-9-10-|
B|-9-^9-9-^9-9-7-^9-9-^9-9--8-|
e|-7-^7-7-^7-7---^7-7-^7-7----|


Chorse)             (2 times)
E|-7----5--7--7----5--7-|
D|-7----5--7--7----5--7-|
A|-7----5--7--7----5--7-|
G|-9----7--9--9----7--9-|
B|-9----7--9--9----7--9-|
e|-7----5--7--7----5--7-|

(outtro) fade out
E|--10-9-7-10-9-7-12-10-9-10-9-7-10-9-6-7--|
D|----0-0-0--0-0-0--0--0-0--0-0-0--0-0-0-0-|
A|-----------------------------------------|
G|-----------------------------------------|
B|-----------------------------------------|
e|-----------------------------------------|
Tap to rate this tab
# A B C D E F G H I J K L M N O P Q R S T U V W X Y Z