Guitaretab - guitar tabs
Song name
# A B C D E F G H I J K L M N O P Q R S T U V W X Y Z

Lake Of Tears - Black Brick Road tab

Black Brick Road  Lake of Tears
Tabbed by MinstrelKnight 
gothicwarrior@mail.ru

h         hammer on
p         pull off
b         bend
/ or \    slide (up, down)
r          release 

Intro  Main riff  Play three times:

|--------------------------------------|
|--------------------------------------|
|--------------------------------------|
|------5---------5---------5-----------|
|----5---5-----5---5-----5---5-----1-0-|
|--3---------3---------3---------1-----|

|--------------------|
|--------------------|
|--------------------|
|------5-------------|
|----5---5-----1-0---|
|--3---------1------3|

A short pause.

|----------------------------|
|----------------------------|
|----------------------------|
|------5---------5-----------|
|----5---5-----5---5-----1-0-|
|--3---------3---------1-----|

|--------------------------------------|
|--------------------------------------|
|--------------------------------------|
|------5---------5---------5-----------|
|----5---5-----5---5-----5---5-----1-0-|
|--3---------3---------3---------1-----|

|-------------------|
|-------------------|
|-------------------|
|------5------------|
|----5---5-----1-0--|
|--3---------1------|

Verse

I met a black bird flying south tonight...

|----------------------------|
|----------------------------|
|----------------------------|
|------5---------5-----------|
|----5---5-----5---5-----1-0-|
|--3---------3---------1-----|

Repeat the following part 4 times:

|--------------------------------------|
|--------------------------------------|
|--------------------------------------|
|------5---------5---------5-----------|
|----5---5-----5---5-----5---5-----1-0-|
|--3---------3---------3---------1-----|

Then add this:

|----------------------------|
|----------------------------|
|----------------------------|
|------5---------5-----------|
|----5---5-----5---5-----1-0-|
|--3---------3---------1-----|

Afterwards:

|------------------------------------------------|
|------------------------------------------------|
|------------------------------------------------|
|------5---------5---------5---------5-----------|
|----5---5-----5---5-----5---5-----5---5------1-0|
|--3---------3---------3---------3----------1----|
[ Tab from: http://www.guitaretab.com/l/lake-of-tears/64970.html ]
|------------------------------------------------|
|------------------------------------------------|
|------------------------------------------------|
|------5---------5---------5-----------------5---|
|----5---5-----5---5-----5---5-----1-0-----5---5-|
|--3---------3---------3---------1-------3-------|

Chorus  repeat three times:

|-------------------------------------|
|-------------------------------------|
|-------------------------------------|
|----------------------5---------5----|
|----1-0-----1-0-----5---5-----5---5--|
|--1-----1-1-------3---------3--------|

Chorus ends with:

|-----|
|-----|
|-----|
|--3--|
|--3--|
|--1--|


|----------------------------|
|----------------------------|
|----------------------------|
|------5---------5-----------|
|----5---5-----5---5-----1-0-|
|--3---------3---------1-----|

Repeat verse
Repeat chorus

Things change  Guitar Solo
Best played on the neck pick-up with slight distortion.

Guitar 1a:
    F5   D#5          G5                  F5    D#5   G5
|--------------------------------------------------------|
|--------------------------------------------------------|
|--/10\--8h10p8\7-8\-8h10p8\78\7-5--5-7-7b8r7-53-3/5--|
|--------------------------------------------------------|
|--------------------------------------------------------|
|--------------------------------------------------------|

Guitar 1b:
                F5      D#5 G5
|---------------------------------------|
|---------------------------------------|
|--7-8-10-8-7-8-8b10r8---8-7h8p7p5--7--|
|---------------------------------------|
|---------------------------------------|
|---------------------------------------|

Guitar 2b(played along with 1b):
                F5      D#5
|---------------------------|
|--8-10-11-10-8-10-10----8--|
|---------------------------|
|---------------------------|
|---------------------------|
|---------------------------|

Guitar 1c:
                   F5         D5       G5
|-----------------------------------------|
|--8-10-11-10-8-10-11r108-10-10b11r10-8--|
|-----------------------------------------|
|-----------------------------------------|
|-----------------------------------------|
|-----------------------------------------|

Repeat Chorus two times, let the final chord ring a bit at the end.

Good luck!
Related for Black Brick Road tab