Song name
# A B C D E F G H I J K L M N O P Q R S T U V W X Y Z

Lake Of Tears - To Blossom Blue tab

Lake of tears - To blossom blue


Tuning: E (normal)

Verse/Chorus:

|---------0-------------------0-----------|
|-------1---0-0-1-----------1---0-0-1-----|
|-----2-----------2-------2-----------2---|
|---2-------------------2-----------------|
|-0-------------------0-------------------|
|-----------------------------------------|

|-----------------------------------------|
|---------3-------------------3-----------|
|-------4---2-2-4-----------4---2-2-4-----|
|-----5-----------5-------5-----------5---|
|---5-------------------5-----------------|
|-3-------------------3-------------------|


Pre-Chorus:

C                    G
A little something I know

C                    G
A little somewhere I go
              F
Reminds me of you

G
    To blossom ...


The solo is played over the verse/chorus riff

Tap to rate this tab
# A B C D E F G H I J K L M N O P Q R S T U V W X Y Z