Song name
# A B C D E F G H I J K L M N O P Q R S T U V W X Y Z

Lamb Of God - Break You tab

Song: Break You
Band: Lamb of God
Album: Ashes of the Wake
Label: Epic 2004
Tuning: Dropped D
tabber:general maxx
D,A,D,G,B,E


!

Intro: (x4)
|-----------------------------------------------------------------------------|
|-----------------------------------------------------------------------------|
|-----------------------------------------------------------------------------|
|-----------------------------------------------------------------------------|
|------------------------------7-0-8-5-----------------------------8p0-5h8-7--|
|-0-1p0-1p0-1p0-1p0--1-1p0-1p0-7-0-8-5-0-1p0-1p0--1p0-1p0-1-1p0-1p0-----------|
                                 .

|-----------------------------------------------------------------------------|
|-----------------------------------------------------------------------------|
|-----------------------------------------------------------------------------|
|-----------------------------------------------------------------------------|
|-0h8-0h8-0h8-0h8-6-0h8-0h8---------0h8-0h8-0h8-0h8-6-0h8-0h8-----------------|
|---------------------------6-5-8-7---------------------------6-5-0-0-8-7-10--|
pm                                                            . . . . . .

|-----------------------------------------------------------------------------|
|-----------------------------------------------------------------------------|
|------------------------------------------------------------------------5-2--|
|------------------------------------------------------------------------3-0--|
|0h8-0h8-0h8-0h8-6-0h8-0h8---------0h8-0h8-0h8-0h8-6-0h8-0h8-3-2-0-0-5-4------|
|--------------------------6-5-8-7--------------------------------------------|
pm                                                           . . . . . .

Bridge:
|----------------------------------------------------------------------|
|----------------------------------------------------------------------|
|----------------------------------------------------------------------|
|---------------------------------------------------------------5---3~-|
|-0--------------------------------------------------------------------| Contd
|-0-0-0-0-0-0-0-0-0-0-0-0-0-1p0-1p0-0-0-0-0-0-0-0-0-0-0-0-0-0-0---0----|
pm  . . . . . . . . . . . .         . . . . . . . . . . . . . .   .

-----------------|
-----------------|
-------------2---|
3-5-3--1-3-1-0---|
-----------------| ---Add this ending after first 2 and on second 2 play this ending

----------------------------------|
----------------------------------|
----------------------------------|
----------------------------------|
----------------------------------|
2-4-2-4-6-4-0-4-5-7-5-7-10-9-8-6--|
. . . . . . . . . . . . . . . .

Chorus: (1:11)

|-------------------------------------------------------------|
|-------------------------------------------------------------|
|-------------------------------------------------------------|
|-------------------------------------------------------------|
|---8---7---8---7---8---7---7h10---8---7----3h4p3-0-0-5-4-8-7-|
|-0---0---0---0---0---0---0-7h10-0---0---0-0------------------|
pm.   .   .   .   .   .   .      .   .   . .      . .

|--------------------------------------------------------------------|
|--------------------------------------------------------------------|
|--------------------------------------------------------------------|
|--------------------------------------------------------------------|
|---8---7---8---7---8---7---7h10-(x3)-----8---7----3h4p3-0-0-5-4-8-7-| (x2)
|-0---0---0---0---0---0---0-7h10--------0---0---0-0------------------|
pm.   .   .   .   .   .   .             .   .   . .      . .

Bridge:
|----------------------------------------------------------------------|
|----------------------------------------------------------------------|
|----------------------------------------------------------------------|
|---------------------------------------------------------------5---3~-|
|-0--------------------------------------------------------------------| Contd
|-0-0-0-0-0-0-0-0-0-0-0-0-0-1p0-1p0-0-0-0-0-0-0-0-0-0-0-0-0-0-0---0----|
pm  . . . . . . . . . . . .         . . . . . . . . . . . . . .   .

-----------------|
-----------------|
-------------2---|
3-5-3--1-3-1-0---|
-----------------| ---Add this ending after first 2 and on second 2 play this ending

----------------------------------|
----------------------------------|
----------------------------------|
----------------------------------|
----------------------------------|
2-4-2-4-6-4-0-4-5-7-5-7-10-9-8-6--|
. . . . . . . . . . . . . . . .

|--------------------------------------------------------------------|
|--------------------------------------------------------------------|
|--------------------------------------------------------------------|
|--------------------------------------------------------------------|
|---8---7---8---7---8---7---7h10-(x3)-----8---7----3h4p3-0-0-5-4-8-7-|
|-0---0---0---0---0---0---0-7h10--------0---0---0-0------------------|
pm.   .   .   .   .   .   .             .   .   . .      . .

|---------------|
|---------------|
|---------------|
|---------------|
|-0---6---8--3--|  (x4)
|-0---6---8--3--|

(x2)
|-----------------------------------------------------------------------------|
|-----------------------------------------------------------------------------|
|-----------------------------------------------------------------------------|
|-----------------------------------------------------------------------------|
|-----------------------------7-0-8-5-----------------------------8p0-5h8-7---|
|-0-1p0-1p0-1p0-1p0--1-1p0-1p0-7-0-8-5-0-1p0-1p0--1p0-1p0-1-1p0-1p0-----------|
                                 .

|----------------------------------------------------|
|----------------------------------------------------|
|----------------------------------------------------|
|----------------------------------------------------|
|---------------------8---------------------8--------|
|-0--00--0--00-00-1-0---0--00--0--00-00-1-0----------|
pm.  ..  .  .. .. . .   .  ..  .  .. .. . .

|-----------------------------------------------------------------------------|
|-----------------------------------------------------------------------------|
|-----------------------------------------------------------------------------|
|-----------------------------------------------------------------------------|
|-----------------------------7-0-8-5-----------------------------8p0-5h8-7---|
|-0-1p0-1p0-1p0-1p0--1-1p0-1p0-7-0-8-5-0-1p0-1p0--1p0-1p0-1-1p0-1p0-----------|
                                 .
|----------------------------------------------------|
|----------------------------------------------------|
|----------------------------------------------------|
|----------------------------------------------------|
|---------------------8---------------------8--------|
|-0--00--0--00-00-1-0---0--00--0--00-00-1-0----------|
pm.  ..  .  .. .. . .   .  ..  .  .. .. . .

(x2)
|-----------------------------------------------------------------------------|
|-----------------------------------------------------------------------------|
|-----------------------------------------------------------------------------|
|-----------------------------------------------------------------------------|
|-----------------------------7-0-8-5-----------------------------8p0-5h8-7---|
|-0-1p0-1p0-1p0-1p0--1-1p0-1p0-7-0-8-5-0-1p0-1p0--1p0-1p0-1-1p0-1p0-----------|
                                 .
Outro: (x4)
|--------------------------------------------------------------------------|
|--------------------------------------------------------------------------|
|--------------------------------------------------------------------------|
|--------------------------------------------------------------------------|
|-----------------------------7-0-8-5-------------------------------7-0-8-5|
|0-1p0-1p0-1p0-1p0--1-1p0-1p0-7-0-8-5--0-1p0-1p0-1p0-1p0--1-1p0-1p0-7-0-8-5|
pm                               .                                     .
Tap to rate this tab
# A B C D E F G H I J K L M N O P Q R S T U V W X Y Z