Guitaretab - guitar tabs
Song name
# A B C D E F G H I J K L M N O P Q R S T U V W X Y Z

Lamb Of God - Blacken The Cursed Sun tab

LAMB OF GOD
SACRAMENT
"BLACKEN THE CURSED SUN"

DROPPED D (d a d g b e) low to high


 INTRO w/ delay
e|-------------------------------------------------------------------------|
b|-------------------------------------------------------------------------|
g|-------------------------------------------------------------------------|
d|-------------------------------------------------------------------------|
a|-------------------------------------------------------------------------|
d|-11/12-12-12-12-12-12-12-12-12-12-12-12/15-15-15-15-15-15-15-15-15-15-15-|

e|-------------------------------------------------------------------|
b|-------------------------------------------------------------------|
g|-------------------------------------------------------------------|
d|-------------------------------------------------------------------|
a|-------------------------------------------------------------------|
d|-15\14-14-14-14-14-14-14-14-14-14-14-14\8-8-8-8-8-8/11-11-11-11-11-|


e|-------------------------------------------------------------------------|
b|-------------------------------------------------------------------------|
g|-------------------------------------------------------------------------|
d|-------------------------------------------------------------------------|
a|-------------------------------------------------------------------------|
d|-11/12-12-12-12-12-12-12-12-12-12-12-12/15-15-15-15-15-15-15-15-15-15-15-|

e|-------------------------------------------------------------------------|
b|-------------------------------------------------------------------------|
g|-------------------------------------------------------------------------|
d|-------------------------------------------------------------------------|
a|-------------------------------------------------------------------------|
d|-15\14-14-14-14-14-14-14-14-14-14-14-14\10-10-10-10-10-10/13-13-13-13-13-|


guitar 2 (enter 3rd time)
e|-------------------------------------------------|
b|-------------------------------------------------|
g|-------------------------------------------------|
d|-5\3-3-3-3-3-3-3-3-3-3-3-3/7-7-7-7-7-7-7-7-7-7-7-|
a|-------------------------------------------------|
d|-------------------------------------------------|

e|-------------------------------------------------|-------------------------|
b|-------------------------------------------------|-------------------------|
g|-------------------------------------------------|-------------------------|
d|-7\6-6-6-6-6-6-6-6-6-6-6-6\1-1-1-1-1-1/5-5-5-5-5-|-------------------------|
a|-------------------------------------------------|-------------------------|
d|-------------------------------------------------|-8-7-5-7-5-4-5-4-1-3-1-4-|


 CHORUS                                                                                1st_ending____________
e|-------------------------------------------------------------------------------------------------------------|
b|-------------------------------------------------------------------------------------------------------------|
g|-6/7-7-7-7-7-7-7-7-7-7-7-7-10-10-10-10-10-10-10-10-10-10-10-10\9-9-9-9-9-9-9-9-9-9-9-9\3-3-3-3-3-3/6-6-6-6-6-|
d|-x-x-x-x-x-x-x-x-x-x-x-x-x-x--x--x--x--x--x--x--x--x--x--x--x--x-x-x-x-x-x-x-x-x-x-x-x-x-x-x-x-x-x-x-x-x-x-x-|
a|-4/5-5-5-5-5-5-5-5-5-5-5-5/8--8--8--8--8--8--8--8--8--8--8--8\-7-7-7-7-7-7-7-7-7-7-7-7\1-1-1-1-1-1/4-4-4-4-4-|
d|-------------------------------------------------------------------------------------------------------------|

  2nd_ending______________
e|-------------------------|
b|-------------------------|
g|-5-5-5-5-5-5/8-8-8-8-8-8-|
d|-x-x-x-x-x-x-x-x-x-x-x-x-|
a|-3-3-3-3-3-3/6-6-6-6-6-6-|
d|-------------------------|

third and forth times (same strum pattern here with these chords)
e|----------------------------|
b|-10----15-----13-----7---11-|
g|-x------x------x-----x----x-|
d|-7-----12-----11-----5----8-|
a|----------------------------|
d|----------------------------|


                            VERSE 
e|-------------------------|-------------------------|-------------------------------------------------|
b|-------------------------|-------------------------|-------------------------------------------------|
g|-------------------------|-------------------------|-------------------------------------------------|
d|-------------------------|-------------------------|-------------------------------------------------|
a|-------------------------|-------------------------|-------------------------3-3-3-3-3-3-2-2-2-2-2-2-|
d|-8-7-5-7-5-4-5-4-1-3-1-4-|-3p0-0-0-0-0-0-0-0-0-1-4-|-3/6-6-6-6-6-6-6-6-6-6-6-1-1-1-1-1-1-1-1-1-1-1-1-|
                                 .............

e|-------------------------------------------------|----------------------|
b|-------------------------------------------------|----------------------|
g|-------------------------------------------------|----------------------|
d|-------------------------------------------------|----------------------|
a|-------------------------6-6-6-6-6-6-5-5-5-5-5-5-|--6----5----3----2----|
d|-6/7-7-7-7-7-5/6-6-6-6-6-4-4-4-4-4-4-4-4-4-4-4-4-|--4----4----1----1----|



 Pre-CHORUS
e|----------------------------------------------------------|
b|----------------------------------------------------------|
g|-7-----------7----------11--------------------------------|
d|-7-----------7----------x---------------------------------|
a|-9-----------8----------9--------3/5-5--8\7-7-7\1-1-1/4-4-|
d|----------------------------------------------------------|
[ Tab from: http://www.guitaretab.com/l/lamb-of-god/77082.html ]
e|----------------------------------------------------------|
b|----------------------------------------------------------|
g|--7----------7----------7---------------------------------|
d|--7----------7----------7---------------------------------|
a|------------------------9--------3/5-5--8\7-7-7\1-1-1/4-4-|
d|--4----------3----------7---------------------------------|



e|---------|
b|---------|
g|---------|
d|--11h12~-|
a|---------|
d|---------|


 CHORUS                                                                                1_____________________
e|-------------------------------------------------------------------------------------------------------------|
b|-------------------------------------------------------------------------------------------------------------|
g|-6/7-7-7-7-7-7-7-7-7-7-7-7-10-10-10-10-10-10-10-10-10-10-10-10\9-9-9-9-9-9-9-9-9-9-9-9\3-3-3-3-3-3/6-6-6-6-6-|
d|-x-x-x-x-x-x-x-x-x-x-x-x-x-x--x--x--x--x--x--x--x--x--x--x--x--x-x-x-x-x-x-x-x-x-x-x-x-x-x-x-x-x-x-x-x-x-x-x-|
a|-4/5-5-5-5-5-5-5-5-5-5-5-5/8--8--8--8--8--8--8--8--8--8--8--8\-7-7-7-7-7-7-7-7-7-7-7-7\1-1-1-1-1-1/4-4-4-4-4-|
d|-------------------------------------------------------------------------------------------------------------|

  2_______________________
e|-------------------------|
b|-------------------------|
g|-5-5-5-5-5-5/8-8-8-8-8-8-|
d|-x-x-x-x-x-x-x-x-x-x-x-x-|
a|-3-3-3-3-3-3/6-6-6-6-6-6-|
d|-------------------------|

back to  VERSE here 


 During Second Pre-Chorus
e|----------------------------------------|
b|----------------------------------------|
g|----------------------------------------|
d|----------------------------------------|
a|----------------------------------------|
d|-0--0--0-0-0-0--0--0-0-0--0--0--0-0-0-0-|


 BREAKDOWN
e|----------------------------------------------------------------------------------|
b|----------------------------------------------------------------------------------|
g|----------------------------------------------------------------------------------|
d|----------------------------------------------------------------------------------|
a|----------------------------------------------------------------------------------|
d|-0-0-0-0----0-0-0-0-0-0-0-0----0-0-0-0-0-0-0-0----0-0-0-0-8-7-5-7-5-4-5-4-1-3-1-4-|
   .......    ...............    ...............    .......

e|--------------------------------------------------------------------------------------|
b|--------------------------------------------------------------------------------------|
g|--------------------------------------------------------------------------------------|
d|----------------------------------------------------------7h8p7---7-----2h3p2---3-----|
a|----------------------------------------------------------------8---8\4-------4-----5-|
d|-0-0-0-0----0-0-0-0-0-0-0-0----0-0-0-0-0-0-0-0----0-0-0-0-------------------------6---|
   .......    ...............    ...............    .......

 Interlude
e|------------------------------------------------------------------------|
b|------------------------------------------------------------------------|
g|-----7------------------7------------------7----7-----------------------|
d|-----7------------------7------------------7------8-7-6-5-7-6-5-7-8-7-6-|
a|-------------------------------------------9----------------------------|
d|-0h4----4-4-4-4h7-7-0h3---3-3-3-3h-7-7-0h7------------------------------|

same riff but the end is played on a lower string for guitar 2 here
e|---------------------------------------------------------------------------|
b|---------------------------------------------------------------------------|
g|---------------------------------------------------------------------------|
d|---------------------------------------12----------------------------------|
a|------------------------------------------13-12-11-10-12-11-10-12-13-12-11-|
d|---------------------------------------------------------------------------|

 Wah effect on this riff
e|-------------------------------------------------------------------------------------------------|
b|-------------------------------------------------------------------------------------------------|
g|-------------------------------------------------------------------------------------------------|
d|-------------------------------------------------------------------------------------------------|
a|-------------------------------------------------------------------------5-----------------------|
d|-4-4-4-4-4-4-4-4-4-4-7-4-3-3-3-3-3-3-3-3-3-3-7-3-0-0-0-0-0-0-0-0-0-0-0-0---8-7-6-5-7-6-5-7-8-7-6-|


e|----------------------------------------|
b|----------------------------------------|
g|----------------------------------------|
d|----------------------------------------|
a|----------------------------------------|
d|-0--0--0-0-0-0--0--0-0-0--0--0--0-0-0-0-|


 OUTRO
e|--------------------------------------------------|
b|--------------------------------------------------|
g|--------------------------------------------------|
d|--------------------------------------------------|
a|--------------------------5-----------------------|
d|-4--(4)/7-3--(3)/7--0-------8-7-6-5-7-6-5-7-8-7-6-|
                            .......................

e|----------------------------------------|
b|----------------------------------------|
g|----------------------------------------|
d|----------------------------------------|
a|----------------------------------------|
d|-0--0--0-0-0-0--0--0-0-0--0--0--0-0-0-0-|


figure out the structure and stuff yourself, comments and corrections welcome...
Related for Blacken The Cursed Sun tab