Leb I Sol - Ne Si Go Prodavaj Koljo Cifligot tab

      INTRO:
      S    S S S S S  S S S S S S S S S  S S S  4x
E||---------------------------------------------||
B||---8------8---8---10-8---8---8---8---10-8----||
G||*--8------8---8---10-8---8---8---8---10-8---*||
D||*--8------8---8---10-8---8---8---8---10-8---*||
A||---6------6---6----8-6---6---6---6----8-6----||
E||---------------------------------------------||


    Verse 1
                              |--3-|
    E        S S S S S S S  S T  T T S  S  S S  S S S
-------------8---8---8-8-L------------------------8-L-|
---------------------------11-9-11-9-8-----8-9-11-----|
*--------------------------------------10b------------|
*--10-------------------------------------------------|
------------------------------------------------------|
------------------------------------------------------|


     |--3-|                       |--3-|
   S T  T T S  S S  S  E   S S  S T  T T S  S S  S S S
--------------------------------------------------------||
--11-9-11-9-8----------8--------------------------------||
--------------10-8-10b----10-8-10-8-10-8-7-------------*||
-------------------------------------------10---10-L---*||
--------------------------------------------------------||
--------------------------------------------------------||


   Verse 2
                                      |--3-|
   S            S  S  S  S    S E   S T  T T S  S S  S S S  S S
----------------------------------------------------------------|
--------------------------------8-----------------------------8-|
*--8---------8g10-10-10-10-10g8----10-8-10-8-7---------7-8-10---|
*----------------------------------------------10-8-10----------|
----------------------------------------------------------------|
----------------------------------------------------------------|


     |--3-|                       |--3-|
   S T  T T S  S S  S  E   S S  S T  T T S  S S  S S S
--------------------------------------------------------||----||
--11-9-11-9-8----------8--------------------------------||----||
--------------10-8-10b----10-8-10-8-10-8-7-------------*||----||
-------------------------------------------10---10-----*||----||
--------------------------------------------------------||----||
--------------------------------------------------------||----||
Tap to rate this tab
 
# A B C D E F G H I J K L M N O P Q R S T U V W X Y Z