Guitaretab - guitar tabs
Song name
# A B C D E F G H I J K L M N O P Q R S T U V W X Y Z

Leftover Crack - One Dead Cop tab

One Dead Cop - Leftover Crack
Fuck World Trade


Tuning: Standard (E B D G A E)

x - dead note 
(n) - ghost note
> - accentuated note 
h - hammer on
p - pull off
^- bend 
/ - slide  
~ - vibrato
. - palm mute


Intro Prt.1 - Acoustic 1
e|------------------------------------------------------|
B|------------------------------------------------------|
G|-9-9-9-9-9-9-9-9-----------6-6-6-6-6-6-6-6--6--8--9---|
D|-9-9-9-9-9-9-9-9--7--9-11--6-6-6-6-6-6-6-6--x--x--x---|
A|-7-7-7-7-7-7-7-7--x--x--x--6-6-6-6-6-6-6-6--4--6--7---|
E|------------------5--7--9-----------------------------|

Intro Prt.1 - Acoustic 2
e|----------------------------------|
B|----------------------------------|
G|------9-------9-------9-------9---|
D|----9---9---9---9---9---9---9---9-|
A|--7-------7-------7-------7-------|
E|----------------------------------|
[ Tab from: http://www.guitaretab.com/l/leftover-crack/58350.html ]
Intro Prt. 2 - Guitar 1&2
e|------------------------------------------------------|
B|------------------------------------------------------|
G|-9-9-9-9-9-9-9-9-----------6-6-6-6-6-6-6-6--6--8--9---|
D|-9-9-9-9-9-9-9-9--7--9-11--6-6-6-6-6-6-6-6--x--x--x---|
A|-7-7-7-7-7-7-7-7--x--x--x--4-4-4-4-4-4-4-4--4--6--7---|
E|------------------5--7--9-----------------------------|
   . . .   . . .             . . .   . . .

Verse 
e|------------------------------------------------------------------|
B|------------------------------------------------------------------|
G|-9-9-9-9-9-9-9-9-----------------6-6-6-6-6-6-6-6------------------|
D|-9-9-9-9-9-9-9-9-7-7-7-7-7-7-7-7-6-6-6-6-6-6-6-6-7-7-7-7-7-7-7-7--|
A|-7-7-7-7-7-7-7-7-7-7-7-7-7-7-7-7-4-4-4-4-4-4-4-4-7-7-7-7-7-7-7-7--|
E|-----------------5-5-5-5-5-5-5-5-----------------5-5-5-5-5-5-5-5--|

Chorus 
e|---------------------------------------------------------|
B|---------------------------------------------------------|
G|-6-6-6-6--9-8-6-----------9-9-9-9--13-11-9---------------|
D|-6-6-6-6--x-x-x-7-7-7-7---9-9-9-9---x--x-x--9-9-9-9------|
A|-4-4-4-4--7-6-4-7-7-7-7---7-7-7-7--11--9-7--9-9-9-9------|
E|----------------5-5-5-5---------------------7-7-7-7------|
                  . . . .                     . . . .

Post Chorus 
e|----------------------------------|
B|----------------------------------|
G|-9-9-9-9-13-9-13!-----------------|
D|-x-x-x-x--x-x--x------------------|
A|-7-7-7-7-11-7-11!-----------------|
E|----------------------------------|


      -END-

Question, comments or improvements? crackcityrockers@gmail.com









Related for One Dead Cop tab
Advertisement will be closed in 10 seconds