Song name
# A B C D E F G H I J K L M N O P Q R S T U V W X Y Z

Len - Video Killed The Radio Star tab

this is just the verse i thought this version sounded close i tried this on an acoustic 
tuned to standard so here it goes

|---------------------------------|
|---------------------------------|
|-8-8-8-8-3-3-3-3-6-6-6-6-6-6-6-6-|
|-9-9-9-9-4-4-4-4-7-7-7-7-7-7-7-7-|
|-9-9-9-9-4-4-4-4-7-7-7-7-7-7-7-7-|
|-7-7-7-7-2-2-2-2-5-5-5-5-5-5-5-5-|
P.M................................

also it could possibly be
|---------------------------------|
|---------------------------------|
|---------------------------------|
|-9-9-9-9-4-4-4-4-7-7-7-7-7-7-7-7-|
|-9-9-9-9-4-4-4-4-7-7-7-7-7-7-7-7-|
|-7-7-7-7-2-2-2-2-5-5-5-5-5-5-5-5-|
P.M................................
there it is i have no clue about the rest of the song i did this all by ear i have no clue
how accurate it is but this sounds almost like it to me
Tap to rate this tab
 
# A B C D E F G H I J K L M N O P Q R S T U V W X Y Z