Song name
# A B C D E F G H I J K L M N O P Q R S T U V W X Y Z

Len - Feelin Alright tab

Artist: Len
Song: Feelin' Alright
Album: You Can't Stop the Bumrush
Tuning: Standard

Intro (It's not a guitar it's just some stuff they programmed into the song but this 
like it)
|-----------|
|-------7*--|
|---7*-7*---|
|--7*-------|
|-7*--------|
|-----------|

Intro/Chorus
|---------------------|
|---------------------|
|-3----7--10----10----|
|-3----7--10--10--10--|
|-1----5---8--------8-|
|---------------------|

Verse
|---------------|
|---------------|
|-3----7--10----|
|-3----7--10----|
|-1----5---8----|
|---------------|

Solo
|-11v-10v-12v--------------------------|
|--------------------------------------|
|---------------161516--161516--161516-|
|-------------14------14------14-------|
|--------------------------------------|
|--------------------------------------|

|----------------------------------------------------------------|
|------------------------------------------13111199786756453423--|
|---181718--181718--1817181820182018201820---------------------2-|
|-16------16------16---------------------------------------------|
|----------------------------------------------------------------|
|----------------------------------------------------------------|

|---------------------------------------------------------------------|
|---------------------------------------------------------------------|
|-2-4-3-5-4-6-5-7-6-8-7-9-9-11-11-13-13-15-14-16-15-17-16-18----------|
|------------------------------------------------------------10/0-7/0-|
|---------------------------------------------------------------------|
|---------------------------------------------------------------------|

and that's the full song, the solo is played really fast.
Tap to rate this tab
 
# A B C D E F G H I J K L M N O P Q R S T U V W X Y Z