Song name
# A B C D E F G H I J K L M N O P Q R S T U V W X Y Z

Lenny Kravitz - Everything tab

Lenny Kravitz- Everything
Black and White America

Tabbed by Marek Beck

Chords: D, Bb, F, Gsus4-G

Listen to the song for the timing
                 
e|-5------8------10-----13-----15-----|15b17--13----------|
B|-8b10---11b13--13b15--16b18--18b20--|-----------15-15~~-|
G|------------------------------------|-------------------|
D|------------------------------------|-------------------|
A|------------------------------------|-------------------|
E|------------------------------------|-------------------|

e|-------10--------------------------|---------------------------------|
B|13b15----15p13---------------------|-----13------13------13----------|
G|--------------12b14r12p10-12p10----|12/14---12/14--12/14---14\12p10--|
D|-------------------------------12\-|-------------------------------12|
A|-----------------------------------|---------------------------------|
E|-----------------------------------|---------------------------------|

e|------------------------------------------------|
B|------------------------------------------------|
G|---10-------------------------------------------|
D|/12--12-10------12-10---10----------------------|
A|----------12-10-------12--12-10\8-10h8----------|
E|---------------------------------------10-------|
      *quarter bend
e|------------------------------------------------|
B|-----10*------------------13--------------------|
G|-----10*------------------12b--10---------------|
D|/12~~-----10h12p10---------------12-12~---------|
A|------------------12\---------------------------|
E|------------------------------------------------|

e|---------10--------10-------------------|
B|-------10--10-13b15--13-----------------|
G|-12b14-----------------12b14rb12p10--10-|
D|----------------------------~------12---|
A|----------------------------------------|
E|----------------------------------------|

e|--------------------13-15-15b17br1513-15p13----|
B|-----13-15-13--13-15-----------------------15~~|
G|12/14--------14--------------------------------|
D|-----------------------------------------------|
A|-----------------------------------------------|
E|-----------------------------------------------|
Tap to rate this tab
# A B C D E F G H I J K L M N O P Q R S T U V W X Y Z