Guitaretab - guitar tabs
Song name
# A B C D E F G H I J K L M N O P Q R S T U V W X Y Z

Libertines - Good Old Days tab

Artist: The Libertines
Song: The Good Old Days
Tunning: Standard
Tabbed By : INDIE NATION

Intro:

 Dm G   Dm G   Dm  G     Dm  G      Dm  G     Dm  G
               Queen Bodecia is long dead and gone
 Dm  F  G     Dm   G       Dm  F  G     Dm   G
Still then the spirit in her children's children's children it lives on

Dm G   A


Main Riff:

         Dm           A#           F         A

    e--1-----0h1p0---------------1-----3---5---------5--
    B-----3---------3-----1h3p1-----1------5----5----5--
    G------------------3--------------------------6-----
    D---------------------------------------------------
    A---------------------------------------------------
    E---------------------------------------------------

Verse:

    Dm                       A#                F        A
But if you've lost your faith in love and music the end wont be long
MAIN RIFF
         Dm             A#                 F           A
Because if its gone for you then i too may lose it and that would be wrong
MAIN RIFF
Dm               A#                F
Tried so hard to keep myself from falling
A                       MAIN RIFF
Back into my bad old ways
Dm                       A#                F
And it chars my heart to always hear you calling
  A                       Dm A# F
Calling for the good old days
  A                       Dm A# F
Cos there were no good old days
  A                       Dm A# F A
These are the good old days

MAIN RIFF

Dm A# F A

[ Tab from: http://www.guitaretab.com/l/libertines/135880.html ]
Verse 2:
Bm
And its not about, tenements and needles
                           G                             A
And all the evils in their eyes and the backs of their minds
Bm               G
Daisy chains and school yard games
A
A list of things we said we'd do tomorrow
A
List of things we said we'd do tomorrow


Dm                A#         F
The Arcadian dream so fallen through
A                              Dm A# F A
But the Albion sails on course
      Dm           A#             F
Let's man the decks and hoist the rigging
A                                    Dm A# F A
Because the pig mans found the source
                                    Dm A# F A
And theres twelve rude boys on the oars


Solo:

e---------------------------------------------------------------------|
B--3-/5---6-/8--6--5--6--5--3--1--2--3--1h2-3--1h2-3--5--6--8--6--5---|
G---------------------------------------------------------------------|
D---------------------------------------------------------------------|
A---------------------------------------------------------------------|
E---------------------------------------------------------------------|


e-------------------------------------------------------------
B--6--5--3--1--------------------------------------3~~--------
G--------------3--2--0----------------------------------------
D-----------------------3--2--0-------------------------------
A-------------------------------------------------------------
E-------------------------------------------------------------

Outro: To fade

    Dm           A#           F         A

e--1-----0h1p0---------------1-----3---5---------5--
B-----3---------3-----1h3p1-----1------5----5----5--
G------------------3--------------------------6-----
D---------------------------------------------------
A---------------------------------------------------
E---------------------------------------------------
Related for Good Old Days tab