Song name
# A B C D E F G H I J K L M N O P Q R S T U V W X Y Z

Lifehouse - May tab

Band: Lifehouse
Song: May


I figured out 3 ways to play this song. 

1. Capo on 4th fret (It's the best Version)
2. Standart Tuning
3. Half step down

Please rate it.

1) Capo 4th fret:


Intro/Verse:

G#|-3--3--3-3-|-0-0-0-0-|-----------|-2-2-2-2-|
C#|-2--2--2-2-|-2-2-2-2-|-3--3--3-3-|-x-x-x-x-|
F#|-0--0--0-0-|-2-2-2-2-|-2--2--2-2-|-0-0-0-0-|
B-|-0--0--0-0-|-0-0-0-0-|-0--0--0-0-|-0-0-0-0-|
D#|-3--3--3-3-|-3-3-3-3-|-3--3--3-3-|-3-3-3-3-|
G#|-3--3--3-3-|-3-3-3-3-|-3--3--3-3-|-3-3-3-3-|



Chorus:

G#|-0--0--0-0-0-0-0-0-0-0-|-----------------------|-----------------------|
C#|-2--2--2-2-2-2-2-2-2-2-|-----------------------|-3--3--3-3-3-3-3-3-3-3-|
F#|-2--2--2-2-2-2-2-2-2-2-|-0--0--0-0-0-0-0-0-0-0-|-2--2--2-2-2-2-2-2-2-2-|
B-|-0--0--0-0-0-0-0-0-0-0-|-2--2--2-2-2-2-2-2-2-2-|-0--0--0-0-0-0-0-0-0-0-|
D#|-3--3--3-3-3-3-3-3-3-3-|-3--3--3-3-3-3-3-3-3-3-|-3--3--3-3-3-3-3-3-3-3-|
G#|-3--3--3-3-3-3-3-3-3-3-|-3--3--3-3-3-3-3-3-3-3-|-3--3--3-3-3-3-3-3-3-3-|


G#|-3--3--3-3-3-3-2-2-2-2-|
C#|-2--2--2-2-2-2-x-x-x-x-|
F#|-0--0--0-0-0-0-0-0-0-0-|
B-|-0--0--0-0-0-0-0-0-0-0-|
D#|-3--3--3-3-3-3-3-3-3-3-|
G#|-3--3--3-3-3-3-3-3-3-3-|


Bridge: 


G#|-0-|---|
C#|-2-|-3-|
F#|-2-|-2-|
B-|-0-|-0-|
D#|-3-|-3-|
G#|-3-|-3-|

At the end of the Bridge:

"Carry me the rest of the way"

G#|-0-|---|---------------|
C#|-2-|---|-3-3-3-3-3-3-3-|
F#|-2-|-0-|-2-2-2-2-2-2-2-|
B-|-0-|-2-|-0-0-0-0-0-0-0-|
D#|-3-|-3-|-3-3-3-3-3-3-3-|
G#|-3-|-3-|-3-3-3-3-3-3-3-|



Breaking Part (Chorus)

Solo: (3:34)

G#|---------------|
C#|---------------|
F#|---------------|
B-|-0h2p0-2-4-2-0-|   3x
D#|---------------|
G#|---------------|

Then:

G#|---------|
C#|---------|
F#|---------|
B-|-4-5-7-7-|
D#|---------|
G#|---------|


Chorus

Outro:

G#|-0--|-|------|------|-3--|--2--|-|
C#|-2--|-|------|-3--|-|-2--|--x--|-|
F#|-2--|-|-0--|-|-2--|-|-0--|--0--|-|   2x
B-|-0--|-|-2--|-|-0--|-|-0--|--0--|-| 
D#|-3--|-|-3--|-|-3--|-|-3--|--3--|-|
G#|-3--V-|-3--V-|-3--V-|-3--V--3--V-|


I will update the other 2 Versions as soon as possible.


Please rate it.
Tap to rate this tab
 
# A B C D E F G H I J K L M N O P Q R S T U V W X Y Z