Song name
# A B C D E F G H I J K L M N O P Q R S T U V W X Y Z

Limp Bizkit - Indigo Flow tab

Band:Limp Bizkit
Song:Indigo Flow
Tabber:Glenn
***=palm-mute
s=slide-on
h=hammer-on
+=RH-tapping
^=LH-tapping
Tuning:1-C#
       2-G#
       3-E
       4-B
       5-F#
       6-C#

intro
1|----------------------------------------------|
2|----------------------------------------------|
3|----------------------------------------------|
4|-14---14-14-9s10-14----14----14-14----14-14---|
5|----7---------------10----10-------10-------9-|
6|-12---12-12------12----12----12-12----12-12---|
   +  ^ +  +  ^    +  ^  +  ^  +  +  ^  +  +  ^

bridge
1|---------------------|
2|-8--7--------0--8--7-|
3|-------8--9----------|
4|---------------------|
5|---------------------|
6|---------------------|

outro
1|---------------------------------|
2|---------------------------------|
3|---------------------------------|
4|---------------------------------|
5|---2-----2h3---5---5-----5-----4-|
6|-0---0-0-----0-3-0-3-0-0-3-0-0-2-|
   *   * *     *   *   * *   * *
Tap to rate this tab
# A B C D E F G H I J K L M N O P Q R S T U V W X Y Z