Song name
# A B C D E F G H I J K L M N O P Q R S T U V W X Y Z

Limp Bizkit - Nobody Like You tab

Nobody Like You
Limp Bizkit

Tuning C# F# B E G# C#
||---------------------------------------------------------|
||---------------------------------------------------------|
||---------------------------------------------------/9-9--|
||---------------------------------------------------/6-6--|
||---------------------------------------------------/7-7--|
||--0-0--0-<3>--1-0-0---0-<3>-1-0-0--0-<3>-1-0-0--0--------|
		  |______|palm muted	     |_____| p.m
With alot of Tremolo
||-----------------------5--5---5---4-5--|
||-12-12-13-15---13--12-------6---5------|
||---------------------------------------|
||---------------------------------------|
||---------------------------------------|
||---------------------------------------|
Muffled with the bass
||-------------------------------------------|
||-------------------------------------------|
||-------------------------------------9-----|
||-------------------------------------6-----|
||---------7---------7b--------7-------7-----|
||---0--0-----0---0------0--0----0--0--------|
    |____|p.m |____|     |___|   |___|
||--------------------------|
||--------------------------|
||--------------------------|
||--------------------------|
||-2-x-x-2-x-x-8-7-x-5-4----|
||-0-x-x-0-x-x-6-5-x-3-2----|
Palm Mute
||---------------------|
||---------------------|
||-0---------------0---|
||--------------0----0-|
||---7-------7---------|
||--------0------------|

||------------------------------------------|
||------------------------------------------|
||-0----------------0-----0------------0----|
||---------------0----0--------------0---0--|
||---7--------7--------------7-----7--------|
||---------0------------6--------0----------|  or
palm muted
||----------------------------|
||----------------------------|
||----------------------------|
||-5-------------5---------5--|
||---7----7-5------7---7-5----|
||-----0------0------0-----0--|

||-----------------------------------|
||-----------------------------------|
||-----------------------------------|
||-5-----------5-----5-----------5---|
||---7-5---7-5---5-----7-5---7-5---5-|
||-------0---------6-------0---------|
only palm mute open strings
||-----------------------------------------|
||-----------------------------------------|
||------------------------------------9----|
||-5-----------5-----5-----------5----6----|
||---7-5---7-5---5-----7-5---7-5---5--7----|
||-------0---------6-------0---------------|
Tap to rate this tab
 
# A B C D E F G H I J K L M N O P Q R S T U V W X Y Z